Transcribed by emma([email protected] 
-------------------------------------------------- 
-------------------------------------------------- 
-------------------------------------------------- 
--2---------------------------------------------- 
--2------7--------4----------4--------4-----7- 
--0----------7----------7---------7------------ 
-------------------------------------------------- 
-------------------------------------------------- 
-------------------------------------------------- 
--2---------------------------------------------- 
--2------7--------4----------4--------4------- 
--0----------7----------7---------7---------7- 
"BAD ACID....JAZZ" by Beaverloop from the "WHO CARES WINS" EP 
Transcribed by Jeremy Martin EMAIL: [email protected] 
--------------------------------------------------------------------- 
Late last year, Beaverloop won an ABC Recovery competition for best band and 
were given the prize of playing at some festival and also doing a live set  
for Recovery. They are one of the biggest bands in Perth at the moment, and  
their live set at the Mudslinger Festival was awesome. One of the funniest  
things I've ever seen was at Mudslinger when Loon X-Wing (bass, vocals)  
pronounced 'I'm hot' and then played a whole set naked! Anyway, here is  
the tab for a great song. 
---------------------------------------------------------------------- 
It may be difficult to play this song right if you don't know it well.  
Timing is very important in this song. 
INTRO: 
|-------------------------------------------| 
|-------------------------------------------| 
|-------------------------------------------| 
|-2---2---x-x-x-x---2---2-------------------| 
|-2---2---x-x-x-x---2---2-------------------| 
|-0---0---x-x-x-x---0---0--4-\-2------------| 
VERSE 1: 
|-------------------------------------------| 
|---5-0-2-0-2-0-2-5------5-0-2-0-2-0-2-0----| 
|-------------------------------------------| 
|-2-------------------2---------------------| 
|-2-------------------2---------------------| 
|-0-------------------0---------------------| 
VERSE 2: 
|-------------------------------------------| 
|---5-0-2-0-2-0-2-5------5-0-2-0-5h7p5-2-5b-| 
|-------------------------------------------| 
|-2-------------------2---------------------| 
|-2-------------------2---------------------| 
|-0-------------------0---------------------| 
CHORUS: 
|-------------------------------------------| 
|-------------------------------------------| 
|-------------------------------------------| 
|-2222-5-222-5-222-5-5-7-7------------------| 
|-2222-5-222-5-222-5-5-7-7------------------| 
|-0000-3-000-3-000-3-3-5-5------------------| 
OUTRO: 
|-------------------------------------------| 
|-------------------------------------------| 
|-------------------------------------------| 
|-2--2--------------------------------------| 
|-2--2--------------------------------------| 
|-0--0--------------------------------------| 
CHORD PROGRESSIONS: 
Intro x1 
Verse 1 x2 
Chorus x2 
Verse 2 x2 
Chorus x4 
Outro x1 
-------------------------------------------------------------------- 
All comments welcome! [email protected]