TAB BY emma woodland 
this is the first time I've put tabs on the net, 
and I'm not completely sure this is right 
oh well here goes. 
  intro 1 
--------------------------------------------------------------- 
--------------------------------------------------------------- 
---------------------------------------------------------------- 
----7--7\5--5--5\4--4--3-333-------777--555--444---33-33-------- 
----7--7\5--5--5\4--4--3-333-------777--555--444---33-33-------- 
----5--5\3--3--3\2--2--1-111-------555--333--222---11-11---------- 
---------------------------------------------------------------- 
---------------------------------------------------------------- 
--777--555--444--333-------------777-x-555-x-444-x-333---------- 
--777--555--444--333-------------777-x-555-x-444-x-333---------- 
--555--333--222--111-------------555-x-333-x-222-x-111--------- 
  drums enter 
 intro2 
--------------------------------------------------------------- 
--------------------------------------------------------------- 
------------------------------------------------------------------ 
---5-5--4-4--7-7--5-5-----times-2--5-5--7-7--4-4--5-5---times 2- 
---5-5--4-4--7-7--5-5--------------5-5--7-7--4-4--5-5----------- 
---3-3--2-2--5-5--3-3--------------3-3--5-5--2-2--3-3----------- 
---------------------------------------------------------------- 
-----------------------------------------fast------------------- 
---------------------------------------------------------------- 
---7----5----4----3----------------7---5---4---3---2------------ 
---7----5----4----3----------------7---5---4---3---2---let ring- 
---5----3----2----1----------------5---3---2---1---0------------ 
VERSE  play this next bit twice. on the 2nd time the word begin 
---------------------------------------------------------------- 
---------------------------------------------------------------- 
---------------------------------------------------------------- 
---2222--2--2--22--------times--2--------2222--2--2--2-5\4------ 
---2222--2--2--22------------------------2222--2--2--2-5\4------ 
---0000--0--0--00------------------------0000--0--0--0-3\2------ 
CHORUS 
---------------------------------------------------------------- 
---------------------------------------------------------------- 
---------------------------------------------------------------- 
---22--5--2--5--2--5--2------5/7-----------times4--------------- 
---22--5--2--5--2--5--2------5/7-------------------------------- 
---00--3--0--3--0--3--0------3/5-------------------------------- 
then it's just- 
verse 
chorus 
vers 
chorus 
intro 1 
intro2 
and that's it, play along with the song if you don't get anything 
and if anyone has any corrections or comments 
(or more beaverloop tabs especially Curtly Ambrose) 
email me,  emma woodland at  
~~bye~~ 
'another month ended 
all systems working well 
all customers satisfied 
all staff motivated and happy 
all PIGS fed and ready to fly'