Transcribed by Jeremy Martin EMAIL: [email protected]	 
--------------------------------------------------------------------- 
Beaverloop are a really cool band from Perth who combine hip hop and weird 
stuff with their usual thrash/punk style. This song is from their latest  
release, an EP called "Who Cares Wins". If you don't have the cd or know  
the song well from live shows, you may have trouble playing it. The  
actual song is easy to play, but timing is everything here. 
--------------------------------------------------------------------- 
VERSE: 
|------------------------------------------| 
|------------------------------------------| 
|------------------------------------------| 
|-2-222-2-2-222-2-222-333333-5-------------| 
|-2-222-2-2-222-2-222-333333-5-------------| 
|-0-000-0-0-000-0-000-111111-3-------------| 
CHORUS 1: 
|------------------------------------------| 
|------------------------------------------| 
|---------------------------------11-11-11-| 
|----6666666666666666-77777777-999---------| 
|------------------------------------------| 
|------------------------------------------| 
CHORUS 2: 
|------------------------------------------| 
|------------------------------------------| 
|---------------------------------11-11-11-| 
|-6676-66666676-6666-77777777-999----------| 
|------------------------------------------| 
|------------------------------------------| 
CHORUS 3: 
|------------------------------------------| 
|------------------------------------------| 
|---------------------------------11-------| 
|-6676-66666676-6666-77777777-999----------| 
|------------------------------------------| 
|------------------------------------------| 
BRIDGE: 
|------------------------------------------| 
|------------------------------------------| 
|------------------------------------------| 
|-3-2-2-3-2-2-3-2-2------------------------| 
|-3-2-2-3-2-2-3-2-2------------------------| 
|-1-0-0-1-0-0-1-0-0------------------------| 
OUTRO: 
|------------------------------------------| 
|------------------------------------------| 
|------------------------------------------| 
|-6----------------------------------------| 
|-6---let-ring-----------------------------| 
|-4----------------------------------------| 
Chord Progressions: 
Verse x5 
Chorus 1 x1 
Chorus 2 x2 
Chorus 3 x1 
Verse x4 
Bridge x1 
Verse x5 
Chorus 1 x1 
Chorus 2 x2 
Chorus 3 x1 
Outro x1 
------------------------------------------------------------------------ 
All comments welcome! [email protected]