Transcribed by Jimbob {[email protected]} 
-------------------- 
Heavy fuzz guitar sound, and distorted bass.  I've seen some funny  
looking tabs of this song; I'm sure mine is the right version, but  
i guess anyone who posts tabs is sure theirs is the right version too...  
"Verse" 
-------------|-----------------|-----------|------------| 
-------------|-----------------|-----------|------------| 
-------------|-------7----5/7\-|-----------|------7---7-| Repeated 
-2-----5/-7--|-------7----5/7\-|-2----5/7--|------7---7-| 
-2-----5/-7--|-------5----3/5\-|-2----5/7--|------5---5-| 
-0-----3/-5--|-----------------|-0----3/5--|------------| 
"Chorus" 
                     /- 3 -\                       /- 3 -\ 
-------------|---------------|------------|----------------| 
-------------|---------------|------------|----------------| 
--8777--8777-|-8777----------|-8777--8777-|-8777--10-10-10-| Repeated 
--8777--8777-|-8777--9-10-11-|-8777--8777-|-8777--10-10-10-| 
--6555--6555-|-6555--9-10-11-|-6555--6555-|-6555--8--8--8--| 
-------------|-------7-8--9--|------------|----------------| 
"Guitar Solo" 
-12/13\12--11/12\11-|-10/11\10--9/10\9--|--12/13\12--11/12\11-|-10/11\10--9/10-|-15-15-15--15-15--15---| 
--------------------|-------------------|---------------------|----------------|---------------------12| 
--------------------|-------------------|---------------------|----------------|-----------------------| 
--------------------|-------------------|---------------------|----------------|-----------------------|etc. 
--------------------|-------------------|---------------------|----------------|-----------------------| 
--------------------|-------------------|---------------------|----------------|-----------------------| 
Yeah The rest of this solo is pretty much squeky higher notes in an  
E Blues scale... 
Improv it a bit :) 
That's pretty mucht he song in terms of the notes... sometimes its  
funkier, someitmes its just bass, no guitar. 
Have a listen and see how things fit in.