I Just Dont Think Ill Ever Get Over You

Colin Hay

Get I Just Dont Think Ill Ever Get Over You chords

  			4 beats per chord
` = 2 beats
tuning  C G C F G C  (transposed DADGAD)
INTRO:
                    I drink good
VERSE-A:
Coffee every morning  comes from a
Place that's far away      when I'm
Done I feel like             talking
  Without you here  there is less
To say      I don't want you
VERSE-B:
Thinking I'm unhappy  what is
Closer to the truth      that if I
Lived till I was  a hundred and two
I just don't think I'll ever get o-
ver you       I'm no longer
VERSE-B:
Moved to drink strong whisky  I shook the
Hand of time  and I knew  that if I
Lived till I could no longer climb my stairs
I just don't think I'll ever get o-
ver you
SOLO:
`
`
       Y'face it
VERSE-A:
Dances   and it haunts me  your laughter still
Ringing in my ears      I still find
Pieces of your presence         here
Even even after all
These years      I don't want you
VERSE-B:
Thinking that I don't get asked  to dinner  'cos I'm here
To say that I some-times do           even
                          (extra bar)
Though I may soon feel the touch of love
  I just don't think  I'll ever get o-
ver you      if I
TAG:
Lived till I was  a hundred and  two
I just don't think I'll  ever get
Over you
CODA:  (11 bars of melody)
================================================================================
CHORDS:
    C5  Cmaj7  Csus2  Fadd2  C  Dsus4  Dsus2/4  Am7(b6)  Am7
C|--0-----0------0------0----0----2-------2-------0-------0--|
G|--0-----0------0------0----0----2-------2-------0-------0--|
F|--2-----6------2------4----2----2-------2-------0-------4--|
C|--0-----0------2------0----4----2-------4-------4-------4--|
G|--0-----0------0------0----0----2-------2-------2-------2--|
C|--0-----0------0------5----0----2-------2------------------|
Additional chords in the SOLO:
   Dm(11)  Fsus2  Gsus4  Em(11)  C6
C|-----------0------0------------0--|
G|---0-------0------0-----2------0--|
F|---0-------0------2-----2------4--|
C|---2-------0------2-----4------0--|
G|---2-------0------0-----4------0--|
C|---2-------5-------------------0--|
CHORDS: (standard tuning)
    C5  Cmaj7  Csus2  Fadd2  C  Dsus4  Dsus2/4  Am7(b6)  Am7
E|--3-----3------3------3----0----3------0--------0-------0--|
B|--1-----0------1------1----1----3------3--------1-------1--|
G|--0-----0------0------2----0----0------0--------0-------0--|
D|--------2------0------3----2----0------0--------3-------2--|
A|--3-----3------3-----------3----0------0--------0-------0--|
E|----------------------1------------------------------------|
Additional chords in the SOLO:
   Dm(11)  Fsus2  Gsus4  Em  C6
E|---3-------3------3----0----0--|
B|---3-------1------1----0----1--|
G|---2-------0------0----0----2--|
D|---3-------3------0----2----2--|
A|-----------------------2----3--|
E|-----------1------3----0-------|