INTRO/Verse: 
Guitar L (Robert Forster) 
e|------------------------------------------------| 
B|------------------------------------------------| 
G|-------------11----11\---------------10-11------| 
D|-7-----7/----12----12\---------7--x/-11-12------| 
A|-7-----7/----12----12\---7-----7--x/-11-12----12| 
E|-5-----5/----10----10\---5-----5--x/-9--10----10| 
+ 
e|----------------9-------------------------------| 
B|----------------10----9--------9-----------9----| 
G|-11-11-11-0-----11-0--9-----9--9--x-----9--9--0-| 
D|-12-12-12-0--11-11-0--9-----9--9--x--9--9--9--0-| 
A|-12-12-12-0--9--9--0--7-----7--7--x--7--7--7--0-| 
E|-10-10-10----9--------0-----0--------0--0-------| 
INTRO/Verse: 
Guitar R (Grant McLennan) 
e|------------------------------------------------| 
B|------------------------------------------------| 
G|------------------------------------------------| 
D|------------------------------------------------| 
A|------------------------------------------------| 
E|------------------------------------------------| 
+ 
e|------------------------------------------------| 
B|------------------------------------------------| 
G|------------------------------------------------| 
D|-------------7--6-------------------------------| 
A|-------------------9--7-------------------------| 
E|----------------------------9-----7-------------| 
INTRO/VERSE/BRIDGE FILL: 
Guitar Overdub 
e|------------------------------------------------|| 
B|------------------------------------------------|| 
G|------------------------------------------------|| x 3 
D|------------------------------------------------|| 
A|------------------------------------------------|| 
E|------------------------------------------------|| 
+ 
e|-------------------------------4-----3-----2--0-| 
B|------------------------------------------------| 
G|----------------------------4-----3-----2-------| 
D|------------------------------------------------| 
A|------------------------------------------------| 
E|------------------------------------------------| 
Pre-Chorus 
Guitar L 
e|------------------------------------------------| 
B|----------9--------9--x-----------9--------9--x-| 
G|----------9--------9--x-----------9--------9--x-| 
D|----------9-----9--9--x-----------9-----9--9--x-| 
A|-7--7--7--7-----7--7--x--7--7--7--7-----7--7--x-| 
E|-0--0--0--------0--------0--0--0--------0-------| 
+ 
e|------------------------| 
B|------------------------| 
G|-------9--9--9--9--9--0-| 
D|----9--9--9--9--9--9--0-| 
A|-7--7--7--7--7--7--7--0-| 
E|-0--0--0--0--0--0--0----| 
Pre-Chorus 
Guitar R 
e|------------------------------------------------| 
B|------------------------------------------------| 
G|------------------------------------------------| 
D|-6--7-----9-----6--------6--7-----9-----6-------| 
A|------------------------------------------------| 
E|------------------------------------------------| 
+ 
e|------------------------| 
B|-9--10-12-10-12-14-12---| 
G|------------------------| 
D|------------------------| 
A|------------------------| 
E|------------------------| 
Chorus: