INTRO/INTERLUDE/OUTRO: 
e|------------------------------------------------| 
B|------------------------------------------------| 
G|------------------------------------------------| 
D|-12-10-9--9-----9--9-----10-9--7--7-----7--7----| 
A|----------10----10-10-0-----------9-----9--9--0-| 
E|------------------------------------------------| 
+ 
e|------------------------------------------------| 
B|------------------------------------------------| 
G|------------------------------------------------| 
D|-9--7--5--5-----5--5-----4--4--x--2-----2--2----| 
A|----------7-----7--7--0--5--5--x--3-----3--3--0-| 
E|------------------------------------------------| 
INTRO/INTERLUDE/OUTRO: 
Organ arranged for Guitar 
e|------------------------------------------------| 
B|----------15-13-12-12-------------13-12-10-10---| 
G|-------------------12----------------------11---| 
D|------------------------------------------------| 
A|------------------------------------------------| 
E|------------------------------------------------| 
+ 
e|------------------------------------------------| 
B|----------12-10-8--8-----7--------5-------------| 
G|-------------------9-----7--------5-------------| 
D|------------------------------------------------| 
A|------------------------------------------------| 
E|------------------------------------------------| 
Verse: 
e|------------------------------------------------| 
B|------------------------------------------------| 
G|-9-----------------------9----------------------| 
D|------------------------------------------------| 
A|----10-12-10----10-10-x-----10-12-10----10-10-x-| 
E|------------------------------------------------| 
+ 
e|------------------------------------------------| 
B|------------------------------------------------| 
G|-9----------------------------------------------| 
D|------------------------------------------------| 
A|----10-12-10----10-10-x--9--9--x--7-----7--7--x-| 
E|------------------------------------------------| 
Chorus: