Intro: 
Guitar I 
e|-7--------7--------------7--------7-------------|| 
B|-8--------8--------------8--------8-------------|| 
G|-9--------9--------------9--------9-------------|| x 4 
D|-9--------9--------------9--------9-------------|| 
A|-7--------7--------------7--------7-------------|| 
E|------------------------------------------------|| 
VERSE I: 
Guitars I 
e|------------------------------------------------| 
B|-------5--0--------1--0--------7--0--------3----| 
G|-5-----5--0--2-----2--0--7-----7--0--4-----4----| 
D|-5-----5--0--2-----2--0--7-----7--0--4-----4----| 
A|-3-----3-----0-----0-----5-----5-----2-----2----| 
E|------------------------------------------------| 
+ 
e|-------7--7--7--7--7-----------7--7--7--7--7--7-| 
B|-8-----8--8--8--8--8-----8-----8--8--8--8--8--8-| 
G|-9-----9--9--9--9--9--9--9-----9--9--9--9--9--9-| 
D|-9-----9--9--9--9--9--9--9-----9--9--9--9--9--9-| 
A|-7-----7--7--7--7--7--7--7-----7--7--7--7--7--7-| 
E|------------------------------------------------| 
+ 
e|------------------------------------------------| 
B|-------5--0--------1--0--------7--0--------3----| 
G|-5-----5--0--2-----2--0--7-----7--0--4-----4----| 
D|-5-----5--0--2-----2--0--7-----7--0--4-----4----| 
A|-3-----3-----0-----0-----5-----5-----2-----2----| 
E|------------------------------------------------| 
+ 
e|-7-----7-----7--7--7--7--7-----7-----7--7--7--7-| 
B|-8-----8-----8--8--8--8--8-----8-----8--8--8--8-| 
G|-9-----9-----9--9--9--9--9-----9-----9--9--9--9-| 
D|-9-----9-----9--9--9--9--9-----9-----9--9--9--9-| 
A|-7-----7-----7--7--7--7--7-----7-----7--7--7--7-| 
E|------------------------------------------------| 
+ 
e|------------------------------------------------| 
B|-------5--0--------1--0--------7--0--------3----| 
G|-5-----5--0--2-----2--0--7-----7--0--4-----4----| 
D|-5-----5--0--2-----2--0--7-----7--0--4-----4----| 
A|-3-----3-----0-----0-----5-----5-----2-----2----| 
E|------------------------------------------------| 
+ 
e|-7-----7-----7--7--7--7--7-----7-----7--7--7--7-| 
B|-8-----8-----8--8--8--8--8-----8-----8--8--8--8-| 
G|-9-----9-----9--9--9--9--9-----9-----9--9--9--9-| 
D|-9-----9-----9--9--9--9--9-----9-----9--9--9--9-| 
A|-7-----7-----7--7--7--7--7-----7-----7--7--7--7-| 
E|------------------------------------------------| 
VERSE I: 
Guitars II 
e|------------------------------------------------| 
B|-------5--0--------1--0--------7--0--------3----| 
G|-5-----5--0--2-----2--0--7-----7--0--4-----4----| 
D|-5-----5--0--2-----2--0--7-----7--0--4-----4----| 
A|-3-----3-----0-----0-----5-----5-----2-----2----| 
E|------------------------------------------------| 
+ 
e|-7-----7-----7--7--7--7--7-----7-----7--7--7--7-| 
B|-8-----8-----8--8--8--8--8-----8-----8--8--8--8-| 
G|-9-----9-----9--9--9--9--9-----9-----9--9--9--9-| 
D|-9-----9-----9--9--9--9--9-----9-----9--9--9--9-| 
A|-7-----7-----7--7--7--7--7-----7-----7--7--7--7-| 
E|------------------------------------------------| 
+ 
e|------------------------------------------------| 
B|-------5--0--------1--0--------7--0--------3----| 
G|-5-----5--0--2-----2--0--7-----7--0--4-----4----| 
D|-5-----5--0--2-----2--0--7-----7--0--4-----4----| 
A|-3-----3-----0-----0-----5-----5-----2-----2----| 
E|------------------------------------------------| 
+ 
e|------------------------------------------------| 
B|-8-----8--#--x--8--#-----8-----8-----8--8--8----| 
G|-9-----9--#--x--9--#-----9-----9-----9--9--9----| 
D|-9-----9--#--x--9--#-----9-----9-----9--9--9----| 
A|-7-----------------------7-----7-----7--7--7----| 
E|------------------------------------------------| 
+ 
e|------------------------------------------------| 
B|-------5--0--------1--0--------7--0--------3----| 
G|-5-----5--0--2-----2--0--7-----7--0--4-----4----| 
D|-5-----5--0--2-----2--0--7-----7--0--4-----4----| 
A|-3-----3-----0-----0-----5-----5-----2-----2----| 
E|------------------------------------------------| 
+ 
e|-7-----7-----7--7--7--7--7-----7-----7--7--7--7-| 
B|-8-----8-----8--8--8--8--8-----8-----8--8--8--8-| 
G|-9-----9-----9--9--9--9--9-----9-----9--9--9--9-| 
D|-9-----9-----9--9--9--9--9-----9-----9--9--9--9-| 
A|-7-----7-----7--7--7--7--7-----7-----7--7--7--7-| 
E|------------------------------------------------| 
Chorus: