Intro: 
e|------------------------------------------------------| 
B|-------------------6-----6-----6----------------------| 
G|-------------------7-----7-----7----------------------| 
D|------------------------------------------------------| 
A|------------------------------------------------------| 
E|------------------------------------------------------| 
+ 
e|------------------------------------------------------| 
B|-------------------------------------11----10---------| 
G|-5-----5-----5----------------------------------------| 
D|-7-----7-----7----------------------------------------| 
A|------------------------------------------------------| 
E|------------------------------------------------------| 
+ 
e|------------------------------------------------------| 
B|-------------------6-----------#----------------------| 
G|-------------------7-----------#----------------------| 
D|------------------------------------------------------| 
A|------------------------------------------------------| 
E|------------------------------------------------------| 
+ 
e|------------------------------------------------------| 
B|-------------------10----11----------11----10---------| 
G|-5-----------#----------------------------------------| 
D|-7-----------#----------------------------------------| 
A|------------------------------------------------------| 
E|------------------------------------------------------| 
VERSE I: 
e|------------------------------------------------------| 
B|-------------------7--------7--7--#-------------------| 
G|-------------------7--------7--7--#-------------------| 
D|-------------------7--------7--7--#-------------------| 
A|------------------------------------------------------| 
E|------------------------------------------------------| 
+ 
e|-------------------5-----5-----5-----5-----5-----5----| 
B|-5--------5--5--#--6-----6-----6-----6-----6-----6----| 
G|-5--------5--5--#--5-----5-----5-----5-----5-----5----| 
D|-5--------5--5--#-------------------------------------| 
A|------------------------------------------------------| 
E|------------------------------------------------------| 
+ 
e|------------------------------------------------------| 
B|-------------------7--------7--7--#-------------------| 
G|-------------------7--------7--7--#-------------------| 
D|-------------------7--------7--7--#-------------------| 
A|------------------------------------------------------| 
E|------------------------------------------------------| 
+ 
e|-------------------------------------5-----5----------| 
B|-5--------5--5--#--------------------6-----6-----#----| 
G|-5--------5--5--#--------------------5-----5-----#----| 
D|-5--------5--5--#--------------------------------#----| 
A|------------------------------------------------------| 
E|------------------------------------------------------| 
+ 
e|------------------------------------------------------| 
B|-------------------7-----------#----------------------| 
G|-------------------7-----------#----------------------| 
D|-------------------7-----------#----------------------| 
A|------------------------------------------------------| 
E|------------------------------------------------------| 
+ 
e|-------------------------------------5-----5----------| 
B|-5-----------#-----------------------6-----6-----#----| 
G|-5-----------#-----------------------5-----5-----#----| 
D|-5-----------#-----------------------------------#----| 
A|------------------------------------------------------| 
E|------------------------------------------------------| 
+ 
e|-------------------------------------------------------------------0----| 
B|-------------------7--------7--7--#--------------------5-----------0--#-| 
G|-------------------7--------7--7--#--------------------5-----------5--#-| 
D|-------------------7--------7--7--#--------------------5-----------5--#-| 
A|------------------------------------------------------------------------| 
E|------------------------------------------------------------------------| 
Chorus: