{intro} 
G |-------------|----------|-----------|-------------|----------|---------| 
D |----4h-5--7~-|-5--4-----|----4~-----|----4h-5--7~-|-5--4-----|----4----| 
A |-7~----------|-------7~-|-5-----7---|-7~----------|-------7~-|-5-----7-| 
E |-------------|----------|-----------|-------------|----------|---------| 
I am the captain of a ghostly crew, 
Sail the seven seas with nothing to do. 
The girl that I thought was untrue 
Really loved me. Boo, hoo, hoo. 
{fill} 
G -------0--2--0-|-2--2--0--2--0--|-------0--2--0-|-2~-- 
D -2--2----------|----------------|-2--2----------|----- 
A ---------------|----------------|---------------|----- 
E ---------------|----------------|---------------|----- 
Near hidden reefs we appear in the gloom 
Luring mariners to their doom. 
As we're condemned, we condemn others too. 
Who would love me? Who? Would You? 
I'm asking you. 
{fill} 
I'm on the Death Ship, 
I sail the seas alone. 
Death Ship - I can call no port home. 
Lost souls cry to Hell in the wind 
Let us in, Let us in! 
{instrumental} 
G |-------------|----------|-----------|-------------|----------|---------| 
D |----4h-5--7~-|-5--4-----|----4~-----|----4h-5--7~-|-5--4-----|----4----| 
A |-7~----------|-------7~-|-5-----7---|-7~----------|-------7~-|-5-----7-| 
E |-------------|----------|-----------|-------------|----------|---------| 
B |------------------------------|------------5~----| 
G |---------------------/5--4----|-4~--7~--4~-------| 
D |-5--4------4----5--4----------|------------------| 
A |------7--7---7----------------|------------------| 
E |------------------------------|------------------| 
G |-4----------------------------------| 
D |---7--5--7--5-----------------------| 
A |--------------4--5--4--2h-4--4--2~--| 
E |------------------------------------| 
I'm on the Death Ship, 
I sail the seas alone. 
Death Ship - I can call no port home. 
Lost souls cry to Hell in the wind 
Let us in, Let us in, Let us in! 
{Fill} 
I need somebody who will die for me 
To free me of this misery. 
I need someone who will cry for me 
Really Love me. Really.  (five times to fill) 
Copyright EMI Music Publishing; reprinted with kind permission. 
Transcribed by Brad Launikonis and Leon Troeth 
Lyrics only version 
Printable version 
            Please mail any comments / suggestions / submissions to 
                          [email protected] 
                            Stone Age Romeos Index 
                            Guitar Archive main page 
                                  My home page 
                    Last updated Monday, November 10, 1997 
-------------------------------------------------------------------------------- 
                   Monash University Personal Page Disclaimer 
This is a personal page published by the author.  The ideas and information 
expressed on it have not been approved or authorised by Monash University 
either explicitly or impliedly.  In no event shall Monash University be liable 
for any damages whatsoever resulting from any action arising in connection with 
the use of this information or its publication, including any action for 
infringement of copyright or defamation.