Intro/Verse riff 
E|--------------|--------------|--------------|--------------| 
B|-----------1--|-----------1--|-----------3--|--------------| 
G|--------2-----|--------0-----|--------2-----|-----------2--| 
D|-----2--------|-----2--------|-----0--------|--------3-----| 
A|--0-----------|--------------|--------------|-----3--------| 
E|--------------|--3-----------|--2-----------|--1-----------| 
Bridge riff 
E|--------------|--------------|-----------2--|--0-----------| 
B|-----------1--|-----------1--|--------3-----|--0-----------| 
G|--------2-----|--------0-----|-----2--------|--0-----------| 
D|-----2--------|-----2--------|--0-----------|--2-----------| 
A|--0-----------|--3-----------|--------------|--2-----------| 
E|--------------|--------------|--------------|--0-----------| 
I wish tonight could last forever 
It's like I've never seen the stars before 
We sit in silence by a river 
Aware that this can't happen anymore 
And you catch the moonlight in your hair 
and a whisper from nowhere softly tells me that 
I don't want nobody 
I don't want nobody 
                                    (bridge) 
I don't want no-one if I don't have you 
I guess you've always shared my feelings 
But until now they've only held us back 
A wilderness of fear and darkness 
That now reveals itself as innocence 
And you are so perfect in my sight 
We fall silent like the night that protects us 
And I don't want nobody 
I don't want nobody 
I don't want no-one if don't have you 
And you catch the moonlight in your hair 
and a whisper from nowhere seems to tell me, 
tell me, tell me.. 
We must return to home and shelter 
and, like before, we'll go our separate ways 
What we have shared can't make any difference now 
Your lover calls, your lover calls 
And you go back there 
While I only wonder what I'll do 
All tomorrow without you 
All I know now is 
I don't want nobody 
I don't want no-one if I don't have you