Tabbed by David Lees ([email protected]) 
This is the second single from "Of Someday Shambles" and as usual, its a great song. I'm not too 
sure about the little riffs that Chris plays during the beginning, but its as close as I could 
get. 
BEGINNING 
*not distorted* 
Kevin: 
|--------------- 
|--------------- 
|-6---4---6---4- 
|-6---4---6---4- 
|-4---2---4---2- 
|--------------- 
Chris: 
|------------------------------------------- 
|----2-------------2---------4---------4---- 
|-4-----4---4-4-4-----4-------------------4- 
|-------------------------------4-4-4------- 
|------------------------------------------- 
|- ----------------------------------------- 
VERSE 
"Well I thought the worst was over..." 
|--------------- 
|--------------- 
|-6---4---6---4- 
|-6---4---6---4- 
|-4---2---4---2- 
|--------------- 
BRIDGE 
"What they tell me..." 
*slightly distorted* 
|--------------- 
|--------------- 
|-6---4---6---4- 
|-6---4---6---4- 
|-4---2---4---2- 
|--------------- 
CHORUS 
"But its not the truth and I'm not calming down" 
*distorted* 
Kevin: 
|------- 
|------- 
|-9---6- 
|-9---6- 
|-7---4- 
|------- 
Chris: 
|------------------------------------------------- 
|------------------------------------------------- 
|-9---6---------4-------4--6---------4-------4--6- 
|-9---6----4--6----4--6----6----4--6----4--6----6- 
|-7---4------------------------------------------- 
|------------------------------------------------- 
CODA 
"Father oh father" 
*acoustic* 
|------------ 
|------------ 
|-9--4--6--4- 
|-9--4--6--4- 
|-7--2--4--2- 
|------------ 
END 
|--------- 
|--------- 
|-6--8--4- 
|-6--8--4- 
|-4--6--2- 
|--------- 
Send comments or corrections to [email protected]