Transcribed by Jeremy Martin EMAIL: [email protected] 
This is a really easy song from the new single and didn't  
take long to work out. If you haven't got any Jebediah  
stuff, go out and get some because they're gonna be huge. 
INTRO/VERSE: 
|------------------------------------------------------------|  
|------------------------------------------------------------|  
|-7777777777-------4-4-4-4-------4-4-4-4---------------------|  
|-7777777777--4-4--4-4-4-4--4-4--4-4-4-4---------------------|  
|-5555555555--4-4--2-2-2-2--4-4--2-2-2-2---------------------|  
|-------------2-2-----------2-2------------------------------|  
CHORUS: 
|------------------------------------------------------------|  
|------------------------------------------------------------|  
|-8888888888--------------6666--------6666-------------------|  
|-8888888888--6666666666--6666--6666--6666--6666-------------|  
|-6666666666--6666666666--4444--6666--4444--6666-------------|  
|-------------4444444444--------4444--------4444-------------|  
INTERLUDE: 
|------------------------------------------------------------|  
|------------------------------------------------------------|  
|-6666--------6666-------------------------------------------|  
|-6666--6666--6666--6666-------------------------------------|  
|-4444--6666--4444--6666-------------------------------------|  
|-------4444--------4444-------------------------------------|  
OUTRO A: 
|------------------------------------------------------------|  
|-2--5--2--0-----------0--2--5--2--5-------------------------|  
|-------------2--0--2----------------------------------------|  
|------------------------------------------------------------|  
|------------------------------------------------------------|  
|------------------------------------------------------------|  
OUTRO B: 
|------------------------------------------------------------|  
|-2--5--2--0-----------0--2----------------------------------|  
|-------------2--0--2-----------4--2-------------------------|  
|----------------------------4--4--2-------------------------|  
|----------------------------4--2--0-------------------------|  
|----------------------------2-------------------------------|  
CHORD PROGRESSIONS: 
Verse x6 
Chorus x2 
Interlude x1 
Verse x6 
Chorus x2 
Interlude x1 
Chorus x2 
Interlude x1 
Verse x4 
Outro A x5 
Outro  x1 
------------------------------------------------------------- 
All comments please post to Jeremy Martin  
[email protected]