Intro: 
Verse 1
This will take some explaining but I think you will agree 
There is no use pretending that there's hope for you and me  
   And I love her,    but do you think she can see 
When I tell her,    it's the end for you and me 
It was over,    ever since you went and shot me  
( 
   Like a harpoon 
   Like a harpoon 
   Like a harpoon in my heart... 
.... 
( 
Like a harpoon 
( 
Like a harpoon in my heart 
Verse 2 
I can handle the fighting, it's the affection I can't stand  
And I don't mind us talking, just don't try and touch my hand  
   And I love her,    but do you think she can see 
When I tell her,    it's the end for you and me 
It was over,    ever since you went and shot me  
( 
   Like a harpoon 
   Like a harpoon 
   Like a harpoon in my heart... 
Solo 
e|----------------------------------------------------| 
B|----------------------12----12----------------------| 
G|--------8h9p8--8h9-11----11----11----8---11--9-8----| 
D|------9-------------------------------------------9-| 
A|--7h9-----------------------------------------------| 
E|----------------------------------------------------| 
e|----------------------------------------------------| 
B|----------------------------------------------------| 
G|-------------------8h9p8--------11--11-11^----------| 
D|-----------------9-------11--9----------------------| 
A|--9-9h11p9--9h11------------------------------------| 
E|----------------------------------------------------| 
 intro 
Bridge:
    When you left I didn't      want you back 
    Now your gone so won't you     come right back 
Come right back 
Come right back 
Come right back 
Come right back 
Come right back 
Come right back 
Verse 3 
Why does it hurt? 
Simple matters don't seem worth  
     We are the same 
But it's not happening again  
   And I love her,    but do you think she can see 
When I tell her,    it's the end for you and me 
It was over,    ever since you went and shot me  
( 
   Like a harpoon 
   Like a harpoon 
   Like a harpoon in my heart... 
.... 
( 
Like a harpoon 
( 
Like a harpoon in my heart