tabbed by Paul McCLure 
	Jebediah never ceases to amaze me. They haven't written  
one crap song yet! Here's the new single (and one of my favortite songs) 
which really kicks arse live.	 
send all comments to :[email protected] 
This part is done right at the beginning and through the verses 
E------------------------------------------------------------ 
B------------------------------------------------------------ 
G-------6b-6-6----------------------------------------------- 
D------------------------------------------------------------ 
A------------------------------------------------------------ 
E------------------------------------------------------------ 
Verse (Rhythm) 
E------------------------------------------------------------ 
B------------------------------------------------------------ 
G-----------7-7-7-7------------------------------------------ 
D--4-4-4-4--7-7-7-7--7-7-7-7-7-7-7-7------------------------- 
A--4-4-4-4--5-5-5-5--7-7-7-7-7-7-7-7------------------------- 
E--2-2-2-2-----------5-5-5-5-5-5-5-5------------------------- 
Verse (Lead) 
E-------------------5-----5-----5---------------------------- 
B-------7-----7---7------------------------------------------ 
G---7-7---7-7---7----7-7---7-7---7--------------------------- 
D------------------------------------------------------------ 
A------------------------------------------------------------ 
E------------------------------------------------------------ 
pre chorus ("well I'm just the first one...") 
E------------------------------------------------------------ 
B------------------------------------------------------------ 
G---------------------------7-7------------------------------ 
D--7-7-x-x-x-x-x-x-x-x--4-4-7-7------------------------------ 
A--7-7-x-x-x-x-x-x-x-x--4-4-5-5------------------------------ 
E--5-5-x-x-x-x-x-x-x-x--2-2---------------------------------- 
play that 2 times then play: 
E------------------------------------------------------------ 
B------------------------------------------------------------ 
G---------------------------7-7-7-7-7-7-7-7-9-9-9-9-9-9-9-9-- 
D--7-7-x-x-x-x-x-x-x-x--4-4-7-7-7-7-7-7-7-7-9-9-9-9-9-9-9-9-- 
A--7-7-x-x-x-x-x-x-x-x--4-4-5-5-5-5-5-5-5-5-7-7-7-7-7-7-7-7-- 
E--5-5-x-x-x-x-x-x-x-x--2-2---------------------------------- 
while Kevin plays the pre chorus Chris plays: 
E------------------------------------------------------------ 
B------------------------------------------------------------ 
G----9b--9-7------------------------------------------------- 
D------------------------------------------------------------ 
A------------------------------------------------------------ 
E------------------------------------------------------------ 
Chorus (Rhythm) 
E------------------------------------------------------------ 
B------------------------------------------------------------ 
G-----------------7-7-7-7-9-9-9-9---------------------------- 
D-4-4-4-4-7-7-7-7-7-7-7-7-9-9-9-9---------------------------- 
A-4-4-4-4-7-7-7-7-5-5-5-5-7-7-7-7---------------------------- 
E-2-2-2-2-5-5-5-5-------------------------------------------- 
Chorus (Lead) Chris strums just one chord (sometimes he just plucks  
random strings) 
E---17------------------------------------------------------- 
B---15------------------------------------------------------- 
G---14------------------------------------------------------- 
D------------------------------------------------------------ 
A------------------------------------------------------------ 
E------------------------------------------------------------ 
first solo (play chorus rhythm over it) 
E------------------------------------------------------------ 
B-7^9-9-9-9-7-7-7-------------------------------------------- 
G------------------------------------------------------------ 
D------------------------------------------------------------ 
A------------------------------------------------------------ 
E------------------------------------------------------------ 
quiet bit  
E------------------------------------------------------------ 
B------------------------------------------------------------ 
G------------------------------------------------------------ 
D---4-------------------------------------------------------- 
A---4-------------------------------------------------------- 
E---2-------------------------------------------------------- 
on the quiet bit the bass plays: 
G------------------------------------------------------------ 
D------------------------------------------------------------ 
A--------2---5-5-5-5-7-7-7-7--------------------------------- 
E--2-2-5---5------------------------------------------------- 
Second solo (notes picked from the chord Chris plays in the chorus 
E-----17-17--17-17-17--17-17-17--17-17-----17-17------------- 
B--------------------------------------15--------15-------15- 
G---------------------------------------------------14-14---- 
D------------------------------------------------------------ 
A------------------------------------------------------------ 
E------------------------------------------------------------ 
E------17-------17-------17---------------------------------- 
B---------15-------15-------15------------------------------- 
G--14--------14-------14------------------------------------- 
D------------------------------------------------------------ 
A------------------------------------------------------------ 
E------------------------------------------------------------ 
Here's the layout of the song 
verse  
pre chorus  
chorus  
verse  
pre chorus  
chorus 
first solo 
quiet bit 
second solo 
chorus 
send any comments to:[email protected]