Tabbed by Grant Joyce 
[email protected] 
This tab is not completely correct, especially the 
lead intro, but hey, its gotta be closer than what 
was on this page before. 
Intro (Lead) 
|------------------------------| 
|------------------------------| 
|-3p0-3p0-2p0-2p0--------------| 
|-----------------2p0---2p0----| 
|------------------------------| 
|---------------------2-----1--| 
Intro & Verse (Rythm)			Verse (Lead) 
|-7--5/7--7--|				|----| 
|-7--5/7--7--|				|----| 
|-8--6/8--8--|          		|----| 
|-9--7/9--9--|				|-9--| 
|------------|          		|-9--| 
|------------|				|-7--| 
1st Chorus (Lead) : Play Twice 
|------------------|       |-x-x-x-x--------| 
|-9-9-9-9-9-9-9-9--|       |-7-7-7-7--------| 
|-9-9-9-9-9-9-9-9--|       |-8-8-8-8--------| 
|-9-9-9-9-9-9-9-9--| x 2   |-9-9-9-9-9-8-7--| x 2 
|-7-7-7-7-7-7-7-7--|       |-9-9-9-9--------| 
|-x-x-x-x-x-x-x-x--|       |-7-7-7-7--------| 
1st Chorus (Rythm) : Play twice 
|------------------|       |-x-x-x-x-x-x-x-x--| 
|-9-9-9-9-9-9-9-9--|       |-7-7-7-7-x-x-x-x--| 
|-9-9-9-9-9-9-9-9--|       |-8-8-8-8-x-x-x-x--| 
|-9-9-9-9-9-9-9-9--| x 2   |-9-9-9-9-x-x-x-x--| 
|-7-7-7-7-7-7-7-7--|       |-9-9-9-9-x-x-x-x--| 
|-x-x-x-x-x-x-x-x--|       |-7-7-7-7-x-x-x-x--| 
2nd & 3rd Chorus (Lead & Rythm) 
  Lead plays 1st Chorus once and rythm 
  plays 1st Chorus once, then both play this. 
|------------------|       |-x--x--x--x--x--x--x--x---| 
|-9-9-9-9-9-9-9-9--|       |-x--x--x--x--x--x--x--x---| 
|-9-9-9-9-9-9-9-9--|       |-11-11-11-11-11-11-11-11--| 
|-9-9-9-9-9-9-9-9--| x 2   |-11-11-11-11-11-11-11-11--| x 2 
|-7-7-7-7-7-7-7-7--|       |-9--9--9--9--9--9--9--9---| 
|-x-x-x-x-x-x-x-x--|       |-x--x--x--x--x--x--x--x---| 
After "1..2..3..4" Bit (Lead & Rythm) 
  |-B--B--D-G#-D-G#-F#--F#--D-D-D-D--| 
Solo (Lead) 
|-------------------|------------------|-----------------|----------| 
|---------------12--|------------------|-----------------|----------| 
|-----8-8-11-11-----|-----8-8-11-11----|-----8-11-8-8----|----------| 
|-9-9---------------|-9-9-----------9--|-9-9----------9--|-----8-9--| 
|-------------------|------------------|-----------------|-9-9------| 
|-------------------|------------------|-----------------|----------|