Tabbed by Andrew Garratt    
                 This song is the 3rd song on Jebediah's single "Jerks Of 
Attention". It is pretty mellow and an awesome song. I couldn't work out the 
order of all the parts as there are so many and some are playing at the same 
time as others. You will just have to listen to the CD to find out 
the order of parts. Sorry. 
Comments welcome Email my cousin Jeremy at: [email protected] 
                     Verse (Rhythm) 
e|--------------------|---------------|------------------|---------------| 
B|--------------------|---------------|------------------|---------------| 
G|-9-9-9--9-9-9--9-9-9|-9-9-9---------|------------------|---------------| 
D|-9-9-9--9-9-9--9-9-9|-9-9-9---7-7-7-|7-7-7-7-----------|---------------| 
A|-7-7-7--7-7-7--7-7-7|-7-7-7---7-7-7 |7-7-7-7-----------|---------------| 
E|--------------------|---------5-5-5-|5-5-5-5-----------|---------------| 
                     Verse (Lead) 
e|----5555-2222-4-5-4-|---------------|------------------|---------------| 
B|222-----------------|---------------|------------------|---------------| 
G|--------------------|---------------|------------------|---------------| 
D|--------------------|---------------|------------------|---------------| 
A|--------------------|-------------- |------------------|---------------| 
E|--------------------|---------------|------------------|---------------| 
                     Rhythm over lead verse 
e|-8-8-8-8-8-8-8-8----|---------------|------------------|---------------| 
B|--------------------|---------------|------------------|---------------| 
G|--------------------|---------------|------------------|---------------| 
D|--------------------|---------------|------------------|---------------| 
A|--------------------|-------------- |------------------|---------------| 
E|--------------------|---------------|------------------|---------------| 
                    Lead over rhythm verse 
e|555-888-6666p5-55555|---------------|------------------|---------------| 
B|--------------------|---------------|------------------|---------------| 
G|--------------------|---------------|------------------|---------------| 
D|--------------------|---------------|------------------|---------------| 
A|--------------------|-------------- |------------------|---------------| 
E|--------------------|---------------|------------------|---------------| 
                   Heavy Part (Rhythm)  
e|--------------------|---------------|------------------|---------------| 
B|--------------------|---------------|------------------|---------------| 
G|-------------6-2-2-2|-2-2-2-2-------|------------------|---------------| 
D|9-9-x-x-x-x--6-2-2-2|-2-2-2-2-------|------------------|---------------| 
A|9-9-x-x-x-x--4-0-0-0|-0-0-0-0------ |------------------|---------------| 
E|7-7-x-x-x-x---------|---------------|------------------|---------------| 
                  Heavy Part (Rhythm) 
e|--------------------|---------------|------------------|---------------| 
B|--------------------|---------------|------------------|---------------| 
G|--------------------|---------------|------------------|---------------| 
D|7-7-7-7-7-4-4-4-----|---------------|------------------|---------------| 
A|7-7-7-7-7-4-4-4-----|-------------- |------------------|---------------| 
E|5-5-5-5-5-2-0-2-----|---------------|------------------|---------------| 
                  Lead Solo  
e|--------------------|---------------|------------------|---------------| 
B|-7h9-7h9-7h9-7h9-7h9|7h9-7h9-7h9----|5-(5)-7-5-5-7-5-5-|7-5-5-7-757----| 
G|--------------------|---------------|------------------|---------------| 
D|--------------------|---------------|------------------|---------------| 
A|--------------------|-------------- |------------------|---------------| 
E|--------------------|---------------|------------------|---------------| 
                  Lead Solo Variation 1  
e|--------------------|---------------|------------------|---------------| 
B|-7h9-7h9-7h9-7h9-7h9|7h9-7h9-7h9----|-9-12-9-9h10p9----|9-12-9-9-9h10p9| 
G|--------------------|---------------|------------------|---------------| 
D|--------------------|---------------|------------------|---------------| 
A|--------------------|-------------- |------------------|---------------| 
E|--------------------|---------------|------------------|---------------| 
                 Variation 1 (continued) 
e|--------------------|---------------|------------------|---------------| 
B|9h10p9--------------|---------------|------------------|---------------| 
G|--------------------|---------------|------------------|---------------| 
D|--------------------|---------------|------------------|---------------| 
A|--------------------|-------------- |------------------|---------------| 
E|--------------------|---------------|------------------|---------------| 
                  Lead Solo Variation 2 
e|--------------------|---------------|------------------|---------------| 
B|-7h9-7h9-7h9-7h9-7h9|7h9-7h9-7h9----|9-12-9-9-12-9-12--|-9-------------| 
G|--------------------|---------------|------------------|---------------| 
D|--------------------|---------------|------------------|---------------| 
A|--------------------|---------------|------------------|---------------| 
E|--------------------|---------------|------------------|---------------| 
                  Lead Solo Variation 3 
e|--------------------|---------------|------------------|---------------| 
B|-7h9-7h9-7h9-7h9-7h9|7h9-7h9-7h9----|-9-9-9-17-17-17-12|12-12----------| 
G|--------------------|---------------|------------------|---------------| 
D|--------------------|---------------|------------------|---------------| 
A|--------------------|-------------- |------------------|---------------| 
E|--------------------|---------------|------------------|---------------| 
                  Lead Solo Outro 
e|--------------------|---------------|------------------|---------------| 
B|--7h9-7h9-7h9-7h9-7h9|7h9-7h9-7h9---|--9-9-9-12-12-9-12|9-12-9-12b-9-12| 
G|--------------------|---------------|------------------|---------------| 
D|--------------------|---------------|------------------|---------------| 
A|--------------------|-------------- |------------------|---------------| 
E|--------------------|---------------|------------------|---------------| 
                   Rhythm over solo 
e|--------------------|---------------|------------------|---------------| 
B|--------------------|---------------|------------------|---------------| 
G|9-9-9-9-9-9-9-9--2-2|2-x-x-x-x-2-2-x|x-x-x-2-2---------|---------------| 
D|9-9-9-9-9-9-9-9--2-2|2-x-x-x-x-2-2-x|x-x-x-2-2---------|---------------| 
A|7-7-7-7-7-7-7-7--0-0|0-x-x-x-x-0-0-x|x-x-x-0-0---------|---------------| 
E|--------------------|---------------|------------------|---------------| 
--------------- 
  - LYRICS - 
_______________                
Hey Bosco what did you do 
To make so many men hate you 
You think your right but say your wrong 
They've been hassling you for way too long 
Goin' out and think you are strong 
Goin' out was going too far 
Goin' out expressing your point of view 
Hey Bosco what did you do 
To make so many cops want you 
They think they're right you say their wrong 
They've been hassling you for way too long 
Goin' out and think you are strong 
Goin' out was going too far 
Goin' out expressing your point of view 
Point of view 
Well I don't want to fake it 
But I know your gonna make it 
But you don't have to take it all....