from the self titled album 
tabbed by Matthew Price ([email protected]) 
VERSE 
e-----4---4------------- 
B-----4---6------------- 
G-----5---6------------- 
D-----6---6------------- 
A-----6---4------------- 
E-----4----------------- 
CHORUS  "you almost lost your balance..." 
e--------------------------------- 
B--------------------------------- 
G-----88888888-66----88888888-66--  x2 
D-----88888888-66-66-88888888-66-- 
A-----66666666-44-66-66666666-44-- 
E-----------------44-------------- 
VERSE 
CHORUS 
VERSE CHORDS X 4 
BRIDGE "yeah I was singin' your tune..." 
e------------------    ------------------- 
B------------------    ------------------- 
G------888-666-----    -----888-66666666-- 
D--666-888-666-444- x3 -666-888-66666666-- 
A--666-666-444-444-    -666-666-44444444-- 
E--444---------222-    -444--------------- 
VERSE CHORDS x8 
last CHORUS 
e------------------------------------------------------------------- 
B------------------------------------------------------------------- 
G-----88888888-66----88888888-66---88888888-66----88888888-66-66-66- 
D-----88888888-66-66-88888888-66---88888888-66-66-88888888-66-66-66- 
A-----66666666-44-66-66666666-44---66666666-44-66-66666666-44-44-44- 
E-----------------44---------------------------44------------------- 
VERSE CHORDS til end 
end on