By Jebediah 
Tabbed by Daniel Sanders ([email protected])  
Easily one of Jebediah's best live songs this one.  
I hope it's right. Good luck! 
     INTRO & LEAD RIFF 
E----4-----4-----4-----5-4---4-----4-----5-4-----5-4--- 
B--5---5-7---5-5---5-7-----5---5-7---5-5-----5-5------- 
G------------------------------------------------------ 
D------------------------------------------------------ 
A------------------------------------------------------ 
E------------------------------------------------------ 
      VERSE  
E--------------- 
B--------------- 
G--6----9------- 
D--6----9----7-- 
A--4----7----7-- 
E------------5-- (muting) 
HEAVY BIT OF VERSE 
E----------------- 
B----------------- 
G----------------- 
D--6--7--9-------- 
A--6--7--9-------- 
E--4--5--7--------  
    CHORUS 
E-------------- 
B-------------- 
G--6--9--4----- 
D--6--9--4--7-- 
A--4--7--2--7-- 
E-----------5-- 
Verse 1 
I'm really gonna pack in this new job I do 
It's gonna be the death of me 
I went to a party of some girl that I know 
At least the alcohol was free 
With all the family around 
We couldn't find a common ground 
And so we left with what we found 
When we first came so 
Chorus 
Way up there, way up there, where'd you go 
Leaving me alone and feeling low 
I'm supposed to be the one you want 
I'm supposed to be the one you want 
Verse 2 
I'm supposed to be the one you want 
I know that I don't earn 100 points in bed 
But will you love me anyway 
It's just that there's so much going on in my head 
That I don't know what to say 
Your car rolled away out of sight 
You cannot leave without a fight 
Okay you listen when we're right 
When we first came so 
Chorus (twice) 
Way up there, way up there, where'd you go 
Leaving me alone and feeling low 
I'm supposed to be the one you want 
I'm supposed to be the one you want 
send any comments to [email protected]