Tabbed by Stan Kim 
This is my first tab so don't laugh. sick new song? keep em coming jebs. 
intro/verse 
e0--1--1--3-------- 
B1--1--3--3-------- 
G0--2--2--0-------- 
D2--3--0--0-------- 
A3--3--0--2-------- 
E---1-----3-------- 
  C     F  Dmin  G 
chorus 
e0--1--1--(0)------ 
B1--1--3--(1)------ 
G0--2--2--(0)------ 
D2--3--0--(2)------ 
A3--3--0--(3)------ 
E---1-------------- 
  C     F  Dmin  (C) 
'get a grip on your true friends?' 
e0--1--1--1--3----- 
B1--1--3--1--3----- 
G2--2--2--2--0----- 
D2--3--0--3--0----- 
A0--3--0--3--2----- 
E0--1-----1--3----- 
Amin F  Dmin F    G