Tabbed by Grant Joyce 
[email protected] 
This song is in 4,4 timing. 
Intro (Lead) 
|------------------------------| 
|-----------------3---------3--| 
|-------------0h2-------0h2----| Play this however many 
|---------0h2-------0h2--------| times its needed. 
|-3---4------------------------| 
|------------------------------| 
|----------------------| 
|-----------------0-3--| 
|-------------0-2------| On the last time of each 
|---------0-2----------| lead bit play this !! 
|-3---4----------------| 
|----------------------| 
Verse (Rythm & Lead) 
except where lead is playing a lead bit !! 
  |-D5--|-C5-C#5-D5--| 
Chorus (Rythm & Lead) 
  |-B5--|-D5--|  repeat as required !! 
Solo (Lead) 
|--------------------------|--------------------------| 
|-13h15-15-13-15-----------|-13h15-15-13-15-----------| 
|----------------11b12r11--|--------------------------| 
|--------------------------|----------------15-14-12--| x 2 
|--------------------------|--------------------------| 
|--------------------------|--------------------------| 
Invaders Bit (Rythm & Lead) 
  |-D5-D5---D5-D5---D5-D5---D5-D5--| Invaders!!  x 4 
Reg Presley (i.e. Bababa) Bit (Rythm) 
  |-B5--|-F#5--|  repeat until the end baby !! 
Reg Presley Bit (Lead) 
|-------------|------------| 
|-------------|------------| 
|-------------|------------| 
|------1-2-4--|-1-2-1-2-1--| 
|-2--2--------|------------| 
|-------------|------------|