RIFF 1 x 5	             RIFF 2 x 1	          RIFF 3 (backing of chords) 
e|-7-4444444---------------|-7-44444444-55555555-|----------9-12-----| 
B|-------------------------|---------------------|----99-12----------| 
G|---------------6-4444444-|---------------------|-------------------| 
D|-------------------------|---------------------|-------------------| 
A|-------------------------|---------------------|-------------------| 
E|-------------------------|---------------------|-------------------| 
Started a fire 
Secret admirer 
Stolen exchanges 
Measured denial 
And I hope you come around 
Coming and going 
Every moment 
Falls through the sky 
Erupted and glowing 
I hope you come around 
I hope you come around 
Just like a something 
Comes out of nothing 
She ain't the done thing 
Yes! she's different 
Nervous and twitchin' 
Sparks and admission 
She's keeping a finger on the ignition 
And I hope you come around 
Brother to sister 
Sister to brother 
fallin' the way of 
burden each other 
I hope you come around 
I hope you come around 
Just like a something 
Comes out of nothing 
She ain't the done thing 
Yes! she's different 
Like she's like a comet 
Like she's like a comet 
Like she's like a comet 
Yes! she's different 
RIFF 1 X 5 
RIFF 2 X 1 
          X 2                   X 1 
e|----------------------|------------------| 
B|--7-9-12-9--7-9-12-12-|-7-9-12-9b10-7-9--| 
G|----------------------|------------------| 
D|----------------------|------------------| 
A|----------------------|------------------| 
E|----------------------|------------------| 
Nervous and twitchin' 
Sparks and admission 
She's keeping a finger on the ignition 
And I hope you come around 
Coming and going 
Every moment 
Falls through the sky 
Erupted and glowing 
I hope you come around 
I hope you come around 
Just like a something 
Comes out of nothing 
She ain't the done thing 
Yes! she's different 
Like she's like a comet 
Like she's like a comet 
Like she's like a comet 
Yes! she's different