Rate for more!  
 Intro/verse 3x 
D|---------------------------------------------------------------------------| 
B|---------------------------------------------------------------------------| 
G|-7~--5-4--------------------7~--5-4----------------------------------------| 
D|-5~-----7-5--2p0------------5~------7-5-4/2p0------------------------------| 
G|------------------2~--0~----------------------2~--0~-----------------------| 
C|-0~---------------0~--4~----0~----------------0~--4~-----------------------| 
D|---------------------------------------------------------------------------| 
B|----------------0----------------------------------------------------------| 
G|-0~-2\4/2-7------0---------7~-5-4-2-0--------------------------------------| 
D|-0~--------5-7\9-----------5~---------4/2p0--------------------------------| 
G|-------------------2~--0~--------------------2~--0~------------------------| 
C|-0~----------------0~--4~--0~----------------0~--4~------------------------| 
  Pre-Chorus 2x (Up and Down Light Strokes) 
D|---------------------------------------------------------------------------| 
B|---------------------------------------------------------------------------| 
G|-------------22222222-44444444-55555-4444-22222----------------------------| 
D|-0~00000000--xxxxxxxx-xxxxxxxx-xxxxx-xxxx-xxxxx----------------------------| 
G|-0~00000000--22222222-44444444-55555-4444-22222----------------------------| 
C|-0~00000000----------------------------------------------------------------| 
  Chorus 4x 
D|---------------------------------------------------------------------------| 
B|---------------------------------------------------------------------------| 
G|-7~-5-4-----------2~222222-444444-5555-4444-2222---------------------------| 
D|-5~-----7-5-4/2p0-x~xxxxxx-xxxxxx-xxxx-xxxx-xxxx-0~------------------------| 
G|------------------2~222222-444444-5555-4444-2222-0~------------------------| 
C|-0~----------------------------------------------0~------------------------| 
  After Chorus 
D|---------------------------------------------------------------------------| 
B|-------------------------------------------0-------------------------------| 
G|-7~--5-4--------------------0~-2\4/2-7------0------------------------------| 
D|-5~------7-5-4/2p0----------0~--------5-7\9--------------------------------| 
G|------------------2~--0~----------------------2~--0~-----------------------| 
C|-0~---------------0~--4~----0~----------------0~--4~-----------------------| 
 2nd verse 1x 
D|---------------------------------------------------------------------------| 
B|---------------------------------------------------------------------------| 
G|-7~--5-4--------------------7~--5-4----------------------------------------| 
D|-5~-----7-5--2p0------------5~------7-5-4/2p0------------------------------| 
G|------------------2~--0~----------------------2~--0~-----------------------| 
C|-0~---------------0~--4~----0~----------------0~--4~-----------------------| 
D|---------------------------------------------------------------------------| 
B|----------------0----------------------------------------------------------| 
G|-0~-2\4/2-7------0---------7~-5-4-2-0--------------------------------------| 
D|-0~--------5-7\9-----------5~---------4/2p0--------------------------------| 
G|-------------------2~--0~--------------------2~--0~------------------------| 
C|-0~----------------0~--4~--0~----------------0~--4~------------------------| 
  Pre-Chorus 4x (Up and Down Light Strokes) 
D|---------------------------------------------------------------------------| 
B|---------------------------------------------------------------------------| 
G|-------------22222222-44444444-55555-4444-22222----------------------------| 
D|-0~00000000--xxxxxxxx-xxxxxxxx-xxxxx-xxxx-xxxxx----------------------------| 
G|-0~00000000--22222222-44444444-55555-4444-22222----------------------------| 
C|-0~00000000----------------------------------------------------------------| 
  Chorus 8x 
D|---------------------------------------------------------------------------| 
B|---------------------------------------------------------------------------| 
G|-7~-5-4-----------2~222222-444444-5555-4444-2222---------------------------| 
D|-5~-----7-5-4/2p0-x~xxxxxx-xxxxxx-xxxx-xxxx-xxxx-0~------------------------| 
G|------------------2~222222-444444-5555-4444-2222-0~------------------------| 
C|-0~----------------------------------------------0~------------------------| 
************************************ 
| /   slide up 
| \   slide down 
| p   pull-off 
| ~   let ring 
| x   Mute note 
************************************