NORMAL TUNING 
INTRO/VERSE/PRE-CHORUS {pick quietly} 
|-----------------------------------------------------------------|-- 
|----5---5---5---5---5---6---6---6---6---6------------------------|-- 
|-----------------------------------------------------------------|-- 
|--7---7---7---7---7---7---7---7---7---7--------------------------|-- 
|--------------------------------------------8-8-8-8-8-8-8-8-8-8--|-- 
|--------------------------------------------6-6-6-6-6-6-6-6-6-6--|-- 
                        boot the distortion|___________________| 
--------------------------------------------------------------------- 
---5---5---5---5---5---6---6---6---6---6----------------------------- 
--------------------------------------------9---9---9---9---9-------- 
--7---7---7---7---7---7---7---7---7---7---0---0---0---0---0---------- 
-----------------------------------------------------------3-3-3-3--- 
-----------------------------------------------------------1-1-1-1--- 
                                       boot the distortion|________ 
-----------------------------------------------------| 
-----------------------------------------------------| 
-----------------------------------------------------| 
------------7-7-7-7-7-7-7-7-7-7----------------------| 
--3-3-3-3-3-5-5-5-5-5-5-5-5-5-5-8-8-8-8-8-8-8-8-8-8--| 
--1-1-1-1-1---------------------6-6-6-6-6-6-6-6-6-6--| 
CHORUS  "tv loves an ass hole i know......" 
|-------------------------------------------------------------------- 
|-------------------------------------------------------------------- 
|-------------------------------------------------------------------- 
|----------------------3-3-3-3-3-3-3-3-3-3-3-7-7-7-7-7-7-7-7-7-7-7--- 
|--3-3-3-3-3-3-3-3-3-3-1-1-1-1-1-1-1-1-1-1-1-5-5-5-5-5-5-5-5-5-5-5--- 
|--1-1-1-1-1-1-1-1-1-1----------------------------------------------- 
----------------------------------------------------------------------| 
----------------------------------------------------------------------| 
----------------------------------10-10-10-10-10----------------------| 
----------------------5-5-5-5-5-5--X--X--X--X--X----------------------| 
--8-8-8-8-8-8-8-8-8-8-3-3-3-3-3-3--8--8--8--8--8-8-8-8-8-8-8-8-8-8-8--| 
--6-6-6-6-6-6-6-6-6-6----------------------------6-6-6-6-6-6-6-6-6-6--| 
VERSE 2/PRE-CHORUS 2 - SAME AS BEFORE 
CHORUS 2 - SAME RIFF x2 
BRIDGE 
|--------------------------------------| 
|--------------------------------------| 
|--12/14-12-10-10/12-10-7-5-5-5/7-7\5--| 
|---X--X--X--X--X--X--X-X-X-X-X-X-X-X--| 
|--10/12-10--8--8/10--8-5-3-3-3/5-5\3--| 
|--------------------------------------|x2 
VERSE 3/PRE-CHORUS 3 
|------------------------------------------------------|--------------- 
|---5---5---5---5---5----------------------------------|---5---5---5--- 
|------------------------------------------------------|--------------- 
|--7---7---7---7---7--7-7-7-7-7-7-7-7------------------|--7---7---7---- 
|---------------------5-5-5-5-5-5-5-5-8-8-8-8-8-8-8-8--|--------------- 
|-------------------------------------6-6-6-6-6-6-6-6--|--------------- 
           distortion|________________________________| 
----------------------------------------------------------------------- 
---5---5---6---6---6---6---6------------------------------------------- 
-------------------------------9---9---9---9---9----------------------- 
--7---7---7---7---7---7---7---0---0---0---0---0------------------------ 
--------------------------------------------------3-3-3-3-3-3-3-3-3-3-- 
--------------------------------------------------1-1-1-1-1-1-1-1-1-1-- 
                                       distortion|____________________ 
-----------------------------------------| 
-----------------------------------------| 
-----------------------------------------| 
--7-7-7-7-7-7-7-7-7----------------------| 
--5-5-5-5-5-5-5-5-5-8-8-8-8-8-8-8-8-8-8--| 
--------------------6-6-6-6-6-6-6-6-6-6--| 
CHORUS 3 - SAME AS CHORUS 2 
OUTRO 
|--------------------------------------------------------------------- 
|--------------------------------------------------------------------- 
|--------------------------------------------------------------------- 
|------------------------3-3-3-3-3-3-3-3-3-3-3-7-7-7-7-7-7-7-7-7-7-7-- 
|--3-3-3-3-3-3-3-3-3-3-3-1-1-1-1-1-1-1-1-1-1-1-5-5-5-5-5-5-5-5-5-5-5-- 
|--1-1-1-1-1-1-1-1-1-1-1---------------------------------------------- 
----------------------------------------------------------| 
----------------------------------------------------------| 
--------------10-10-12-14-15-14-12-14-12-10-14-12-10-7-5--| 
--5-5-5-5-5-5--X--X--X--X--X--X--X--X--X--X--X--X--X-X-X--| 
--3-3-3-3-3-3--8--8-10-12-13-12-10-12-10--8-12-10--8-5-3--| 
----------------------------------------------------------|x2