Tabbed By Andrew Schultz  ([email protected]) 
Tuning: Standard 
Intro 
Part 1 
e  --------------------------------------------- 
b  --------------------------------------------- 
g  ----------3---------------2------------------ 
d  ------3-----3---3-----3-----3---3------------ 
a  --1-1---1-----1---1-1---1-----1-------------- 
E  --------------------------------------------- 
Part 2 
e  --------------------------------------------- 
b  --------------------------------------------- 
g  ----------3---------------2------------------ 
d  ------3-----3---3-----3-----3---3------------ 
a  --------1-----1---------1-----1-------------- 
E  --3-3-------------3-3------------------------ 
Part 3 
e  --------------------------------------------- 
b  --------------------------------------------- 
g  ----------7---------------------------------- 
d  ------8-----8---8---------------------------- 
a  --6-6---6-----6---6-------------------------- 
E  --------------------------------------------- 
Part 4 
e  --------------------------------------------- 
b  --------------------------------------------- 
g  ----------5---------------------------------- 
d  ------5-----5---5---------------------------- 
a  --3-3---3-----3---3-------------------------- 
E  --------------------------------------------- 
Verse (Chords) 
"Care Enought To Want To.." 
e  --------------------------------------------- 
b  --------------------------------------------- 
g  --3--8--5--3--------------------------------- 
d  --3--8--5--3--------------------------------- 
a  --1--6--3--1--------------------------------- 
E  --------------------------------------------- 
Chorus (Chords) 
"Pet Teenager Of The Year.." 
e  --------------------------------------------- 
b  --------------------------------------------- 
g  ---------------3--3--8----------------------- 
d  --pick scrape--3--3--8--5-------------------- 
a  ---------------0--1--6--5-------------------- 
E  ------------------------3-------------------- 
Little Keyboard Fill 
e  --------------------------------------------- 
b  --/9---10------------------------------------ 
g  --------------------------------------------- 
d  --------------------------------------------- 
a  --------------------------------------------- 
E  --------------------------------------------- 
Bridge (Muted Chords) 
"So Wait.." 
e  --------------------------------------------- 
b  --------------------------------------------- 
g  -----2--3--5--3------------------------------ 
d  --5--2--3--5--3--3--------------------------- 
a  --5--0--1--3--1--3--------------------------- 
E  --3--------------1--------------------------- 
Outro Keyboard Solo 
e  --------------------------------------------- 
b  --------------------------------------------- 
g  --/14---------------------------------------- 
d  --------12---13-15--------------------------- 
a  ---------------------13---------------------- 
E  --------------------------------------------- 
This song is really cool, I can't wait to hear the whole album!