Teenager Of The Year (acoustic)

Lo-Tel

Get Teenager Of The Year (acoustic) chords

  			this was played on the chapel on mtv and channel 10 
and it should have been recorded as an acoustic 
also for all the people who haved tabbed this song 
there is a capo on both guitars on the first frett 
Chords 
  F    A#   D# 
--1----6------- 
--1----6----8-- 
--2----7----8-- 
--3----8----8-- 
--3----8----6-- 
--1----6----6-- 
verse1(a) 
e  --------------------------------------------- 
b  --------------------------------------------- 
g  ----------3---------------2------------------ 
d  ------3-----3---3-----3-----3---3------------ 
a  --1-1---1-----1---1-1---1-----1-------------- 
E  --------------------------------------------- 
(b) 
e  --------------------------------------------- 
b  --------------------------------------------- 
g  ----------3---------------2------------------ 
d  ------3-----3---3-----3-----3---3------------ 
a  --------1-----1---------1-----1-------------- 
E  --3-3-------------3-3------------------------ 
(c) 
e   
-------------------------------------------------------------------------- 
b   
-------------------------------------------------------------------------- 
g   
----------7----------------7---------------8----------------7------------- 
d   
------8--------8-8-----8-------8------------------------------------------ 
a   
--6-6---6----6-----6-6---6---6---------8---------8-----8--------8--------- 
E   
-----------------------------------8-8---8---8-8---8-8---8-8--8----------- 
guitar 2 plays picking over again 
guitar 1 plays chords in the following order 
  F    A#   D#  F 
-1-----1----3---1- 
-1-----3----4---1- 
-2-----3----3---2- 
-3-----3----1---3- 
-3-----1----1---3- 
-1-----1----1---1- 
chorus 
guitar 1 
  F    A#   D#  A# 
-1-----1----3---1- 
-1-----3----4---3- 
-2-----3----3---3- 
-3-----3----1---3- 
-3-----1----1---1- 
-1-----1----1---1- 
guitar 2 
e-------------------------------------------- 
b---13-11--11-13-13-11--11-13-11------------- 
g--------12-----------12---------------------x2 
d-------------------------------------------- 
a-------------------------------------------- 
E-------------------------------------------- 
verse the same as before 
the chorus 
then ending no bridge in acoustic 
in bridge guitar one plays chorus chords 
guitar two plays 
e--------------------------------------------- 
b--------------------------------------------- 
g---14/7--7/8/10------------------------------ 
d---xxxxxxxxxxxx-8---------------------------- 
a---12/5--5/6/8--x---------------------------- 
E----------------6----------------------------