Verse Figure 
G|---------------------------------------| 
D|---------------------------------------| 
A|1---1------------------------------0-1-| 
E|-------4---4--1---1-1---1-1--1-3-4-----| 
G|---------------------------------------| 
D|---------------------------------------| 
A|1---1------------------------------0-1-| 
E|-------4---4--1---1-1---1-1--1-3-4-----| 
G|---------------------------------------| 
D|---------------------------------------| 
A|1---1------------------------------0-1-| 
E|-------4---4--1---1-1---1-1--1-3-4-----| 
G|---------------------------------------| 
D|---------------------------------------| 
A|1---1------------------------------0-1-| 
E|-------4---4--1---1-1---1-1--1-3-4-----| 
G|---------------------------------------| 
D|---------------------------------------| 
A|1---1------------------------------0-1-| 
E|-------4---4--1---1-1---1-1--1-3-4-----| 
G|---------------------------------------| 
D|---------------------------------------| 
A|1---1------------------------------0-1-| 
E|-------4---4--1---1-1---1-1--1-3-4-----| 
G|---------------------------------------| 
D|---------------------------------------| 
A|1---1------------------------------0-1-| 
E|-------4---4--1---1-1---1-1--1-3-4-----| 
Interlude 
G|---------------------------------------| 
D|---------------------------------------| 
A|1---1------------------------------0-1-| 
E|-------4---4--1---1-1---1-1--1-3-4-----|