Transcribed by Paul Stipack ([email protected]) 
There are only three different progressions in this song, so I'll 
just tab them out and to get the structure of the song correct just  
play along with the CD. 
PROGRESSION 1: 
E-|----------------------|- 
B-|----------------------|- 
G-|----------------------|- 
D-|-4-4-4------4-4-4-----|-(etc) 
A-|-4-4-4------4-4-4-----|- 
E-|-2-2-0h2-0--2-2-0h2-0-|- 
PROGRESSIOM 2: 
E-|------------------------------------|- 
B-|------------------------------------|- 
G-|----------2-2-2-2--7-7-7-7--9-9-9-9-|- 
D-|-2-2-2-2--2-2-2-2--7-7-7-7--9-9-9-9-|- 
A-|-2-2-2-2--0-0-0-0--5-5-5-5--7-7-7-7-|- 
E-|-0-0-0-0----------------------------|- 
PROGRESSION 3: 
E-|-----------------|- 
B-|-----------------|- 
G-|-7-7---4-4-------|- 
D-|-7-7---4-4---2-2-|- 
A-|-4-4---2-2---2-2-|- 
E-|-------------0-0-|-