Legend : 
x - muted string 
b - bend up 
r - release bend 
/ - slide up 
\ - slide down 
% - pick scrape 
effects from the magic dirt page - www.magicdirt.net 
they are using an eh-big muff and a boss ds-1 
*intro 
clean 
      You're an ordinary boy and that's the way i like it 
e|----------------------------------------------------- 
B|----------------------------------------------------- 
G|----------------------------------------------------- 
D|-3---------3/10------------10\8----------------8\3--- 
A|-3----*----3/10------*-----10\8---------*------8\3-*- 
E|-1---------1/08------------08\6----------------6\1--- 
*-listen for timing in between slides for extra notes 
distortion on 
             the train     mind numbing 
e|----------------------------------------------------- 
B|----------------------------------------------------- 
G|----------------------------------------------------- 
D|-3---------3/10------------10\8----------------8\3--- 
A|-3----*----3/10------*-----10\8---------*------8\3-*- 
E|-1---------1/08------------08\6----------------6\1--- 
distortion off (clean) 
use this throughout first verse 
e|----------------------------------------------------- 
B|----------------------------------------------------- 
G|--12--10--12--10---10-10-10-/-12-12----10------10---- 
D|--12--10--12--10---10-10-10-/-12-12-------10--------- 
A|-(10)(10)(10)-08---08-08-08-/-10-10--8-------8------- 
E|----------------------------------------------------- 
notes in brackets mean hold note but don't strike string 
Chorus 
distortion on 
e|-------------------------------- 
B|-------------------------------- 
G|-------------------------------- 
D|--10---------8-----------3------ 
A|--10----*----8-----*-----3---*-- 
E|--08---------6-----------1------ 
play below twice during chorus then join rythym above 
not quite sure what's happening here so any corrections 
are welcome 
e|-------------------------- 
B|-------------------------- 
G|---10---------10---------- 
D|------10---------10------- 
A|-8-------8----------8----- 
E|------------8------------- 
solo 1 
the solo's i've tabbed aren't the masterpieces 
they wrote but it's close enough to use. the 17br(17) 
should be played as: note, bend up half step, then 
release back without striking note again... 
e|----------------------------------------------------- 
B|----------------------------------------------------- 
G|----------------------------------------------------- 
D|--(3)-/----15-14-15-14-------------15-17br(17)-15---- 
A|-----------------------15-17-15-17------------------- 
E|----------------------------------------------------- 
e|----------------------------------------------------- 
B|----------------------------------------------------- 
G|----------------------------------------------------- 
D|--17-17-17-15-15-15-14-15-15-14-15-15-14-15---------- 
A|--------------------------------------------15-17---- 
E|----------------------------------------------------- 
e|----------------------------------------------------- 
B|----------------------------------------------------- 
G|----------------------------------------------------- 
D|--15-14-------14-15-14-15-14-------15-17br(17)-15---- 
A|--------15-17----------------15-17------------------- 
E|----------------------------------------------------- 
e|-----------------------------15br(15)---------------- 
B|-----------15----15----15-18----------18-18\--------- 
G|-----14-17----17----17------------------------------- 
D|--17------------------------------------------------- 
A|----------------------------------------------------- 
E|----------------------------------------------------- 
end solo with slide down b string and rest for 1 beat 
verse 
e|------------------------- 
B|------------------------- 
G|-------r-------r--------- 
D|--10---e---8---e---3----- 
A|--10---s---8---s---3----- 
E|--08---t---6---t---1----- 
over this, there is misc. pick scrapes, feedback 
and harmonics. Play around until you get something 
that sounds ok. 
chorus bit again 
e|-------------------------------- 
B|-------------------------------- 
G|-------------------------------- 
D|--10---------8-----------3------ 
A|--10----*----8-----*-----3---*-- 
E|--08---------6-----------1------ 
start to outro/2nd solo??? 
e|---------------------------- 
B|---------------------------- 
G|---------------------------- 
D|--15-14-15-14--------------- 
A|--------------15-17-15-17--- 
E|---------------------------- 
play above 4 times with the chorus bit 
then launch into the fast outro bit 
e|----------------------------------------------------- 
B|----------------------------------------------------- 
G|----------------------------------------------------- 
D|--15-17br(17)-15-14-15-14-15-17br(17)-15-14-15-14---- 
A|----------------------------------------------------- 
E|----------------------------------------------------- 
    (faster bit) 
e|----------------------------------------------------- 
B|----------------------------------------------------- 
G|----------------------------------------------------- 
D|--15-14-15-14-15-14-15-14-17-15-14-15-17-15-14------- 
A|----------------------------------------------------- 
E|----------------------------------------------------- 
e|----------------------------------------------------- 
B|----------------------------------------------------- 
G|----------------------------------------------------- 
D|--------------17-15-\(14)/(15)/(17)\(15)/(17)/(19)--- 
A|--15-17-15-17---------------------------------------- 
E|----------------------------------------------------- 
hold note and slide between bracketed notes. vibrato 
the last note and get some lovely feedback. 
and thats it!!! 
The lyrics here are for a guide, not timing. Sorry! 
Any comments, suggestions, corrections, other good tabs etc... 
e-mail me on [email protected]