Transcribed by Paul @ OzTabs ([email protected]) 
www.ozmusic-central.com.au/oztabs 
Notes: This sounds fairly close, comments and 
corrections welcome. 
1ST VERSE:								LEAD NOTES: 
E-|--------------------------------------------------------------|- 	-|-------|- 
B-|--------------------------------------------------------------|-	-|-8--10-|- 
G-|-7-7-7--7-7-7-7-7-7-7-7---------------------------------------|-	-|-------|- 
D-|-7-7-7--7-7-7-7-7-7-7-7--4-4-4--5-5-5--5-5-5-5-5-5-5-5--5-5-5-|-	-|-------|- 
A-|-5-5-5--5-5-5-5-5-5-5-5--4-4-4--5-5-5--5-5-5-5-5-5-5-5--5-5-5-|-	-|-------|- 
E-|-------------------------2-2-2--3-3-3--3-3-3-3-3-3-3-3--3-3-3-|-	-|-------|- 
PRE CHORUS 
E-|------------------------------------------------|- 
B-|------------------------------------------------|- 
G-|------------------------------------------------|- 
D-|-7-7-7-7-2-4--5-5-5-5-2-4--7-7-7-7-2-4--5-5-5-5-|- 
A-|-7-7-7-7-2-4--5-5-5-5-2-4--7-7-7-7-2-4--5-5-5-5-|- 
E-|-5-5-5-5-0-2--3-3-3-3-0-2--5-5-5-5-0-2--3-3-3-3-|- 
CHORUS CHORDS: 
E-|--------------------------|- 
B-|--------------------------|- 
G-|-7-7-7-7------------------|- 
D-|-7-7-7-7-7-4--5-5-5-5-9-7-|- 
A-|-5-5-5-5-7-4--5-5-5-5-9-7-|- 
E-|---------5-2--3-3-3-3-7-5-|- 
2ND VERSE: 
E-|--------------------------------------------------------------|- 
B-|--------------------------------------------------------------|- 
G-|-7-7-7--7-7-7-7-7-7-7-7---------------------------------------|- 
D-|-7-7-7--7-7-7-7-7-7-7-7--4-4-4--5-5-5--5-5-5-5-5-5-5-5--5-5-5-|-(x 3) 
A-|-5-5-5--5-5-5-5-5-5-5-5--4-4-4--5-5-5--5-5-5-5-5-5-5-5--5-5-5-|- 
E-|-------------------------2-2-2--3-3-3--3-3-3-3-3-3-3-3--3-3-3-|- 
E-|-----------------------------------------------------------------|- 
B-|-----------------------------------------------------------------|- 
G-|-7-7-7--7-7-7-7-7-7-7-7--11-11-11--4-4-4--4-4-4-4-4-4-4-4--4-4-4-|- 
D-|-7-7-7--7-7-7-7-7-7-7-7--11-11-11--4-4-4--4-4-4-4-4-4-4-4--4-4-4-|-(x 4) 
A-|-5-5-5--5-5-5-5-5-5-5-5--9--9--9---2-2-2--2-2-2-2-2-2-2-2--2-2-2-|- 
E-|-----------------------------------------------------------------|- 
Then play the pre-chorus a couple times followed by the chorus progression 
till the end.