Australia 
Noxious Obnoxious 
Magic Dirt 
Tabbed By Sean 
Intro :  
------------------------------------------------------------------ 
------------------------------------------------------------------ 
------------------------------------------------------------------ 
------9-/--5-/--7--777----------------7-/-9-/-4--444-------------- 
------9-/--5-/--7--777---(times 2) ---7-/-9-/-4--444--(times 2)--- 
------7-/--3-/--5--555----------------5-/-7-/-2--222-------------- 
Who cares about you.. (adalitas guitar) 
------------------------------------------------------ 
------------------------------------------------------ 
------------------------------------------------------ 
-----3-----------------------------------12----------- 
-----3-----------------------------------12----------- 
-----1-----------------------------------10----------- 
Rauls guitar ( not sure on absolute timing)  
-------7-/--11--11--11-11-11--11---13--13--13--13--13--13--- 
------------------------------------------------------------ 
------------------------------------------------------------ 
------------------------------------------------------------ 
------------------------------------------------------------ 
------------------------------------------------------------ 
Noxius Obnoxius * = HARMONICS 
------------------------------------- 
------------------------------------- 
------------------------------------- 
----55--5---55-----99--9--99--------- 
----55--5---55-----99--9--99--------- 
----33--3---33-----77--7--77--------- 
        *                  * 
Not with my false eye 
--------------------------------------- 
--------------------------------------- 
--------------------------------------- 
----------9---5--7777 --44---44-------- 
----------9---5--7777 --44---44-------- 
----------7---3--5555 --22---22-------- 
yeah, yeah ,yeah 
----------------------------------------------------------------- 
----------------------------------------------------------------- 
----------------------------------------------------------------- 
----4-4--444------7-7-777---9-9-999---12--12---12-12-12---------- 
----4-4--444------7-7-777---9-9-999---12--12---12-12-12---------- 
----2-2--222------5-5-555---7-7-777---10--10---10-10-10----------