Transcribed by Rochelle    
[email protected] 
^  HAMMER ON 
(sounds pretty close) 
power chords   
e----------------------------- 
B----------------------------- 
G--------------------------^-- 
D---^----^----^----^----5-5-7- 
A--5-7--5-7--5-7--5-7-7------- 
E----------------------------- 
last time, 
e------------------------------------------- 
B------------------------------------------- 
G--------------------------^---------------- 
D---^----^----^----^----5-5-7-7-7-7-5-5-5-5- 
A--5-7--5-7--5-7--5-7-7--------------------- 
E------------------------------------------- 
e----------------------- 
B----------------------- 
G-------------5--------- 
D-2---4---5---5---7----- 
A-2---4---5---3---7----- 
E-0---2---3-------5----- 
e------------------------ 
B------------------------ 
G-----------------5------ 
D-2---2---5---2---5---7-- 
A-2---2---5---2---3---7-- 
E-0---0---3---0-------5-- 
EFFECTS 
heavy back to start 
then clean when Adalita is singing ("take her to the room..") 
 THEN, 
e-----------------------       e------ 
B-----------------------       B------ 
G---------------5--5--2-       G---5-- 
D--9--9--12--9--3--3--0-       D---3-- 
A--7--7--10--7----------       A------ 
E-----------------------       E------ 
      distorted 
Well I hope that is a better guide than nothing otherwise work out where  
I have gone wrong!