this tab sounds alright but I havent got the Cd with me to check it , so try it for yourself.  
Intro And verse Riff :  
------------------------------------------------- 
------------------------------------------------- 
------------------------------------------------- 
-----44444--4----77777----44444--4---77777777---- 
-----44444--2----55555----44444--2---55555555---- 
-----22222----------------22222------------------ 
What , What Happens next :  
------------------------------------------------- 
------------------------------------------------- 
------------------------------------------------- 
-----11-11--99---7---77777----------------------- 
------9--9--77---5---55555----------------------- 
-------------------------------------------------