Australia 
"Shovel" by MAGIC DIRT  From Friends in Danger 
Transribed by Rochelle ) 
^  Hammer On 
*  Bend/Vibrato 
Intro 
B------------------------------------------------ 
G---^------^------^----------^--^---------------- 
D-12-14--12-14--12-14--12--12-11-12-------12----- 
A-----------------------------------12-14----14-- 
E------------------------------------------------ 
                                              * 
B------------------------------------------------ 
G---^------^------^----------^--^---------------- 
D-12-14--12-14--12-14--12--12-11-12-------12-15-- 
A-----------------------------------12-14-------- 
E------------------------------------------------ 
                                               * 
Repeat intro (scaling the end) 
   (Bass Notes) 
   "I've come back from all my quitting..." 
      "Hey slice, Up my Grave..." 
I think that is it .....just a lot of distorted feedback !