(From their Debut EP Busted) 
Transcribed by Andrew Loch ([email protected]) 
Here's a great piece of Aussie punk by Gold Coast band Blister. One of 
Costa Zouliou's favourite bands. 
Verse chords x 2 
G--2--|-----|-----|-----| 
D--2--|--4--|--2--|--4--| 
A-----|--4--|--2--|--4--| 
E-----|--2--|-----|--2--| 
Verse ---> Chorus Part 1 chords 
G--9--|--6--|--4--|--6--|--7--|-----| 
D--9--|--6--|--4--|--6--|--7--|--7--| 
A--7--|--4--|--2--|--4--|--5--|--7--| 
E-----|-----|-----|-----|-----|--5--| 
Verse ---> Chorus Part 2 chords 
G--9--|--6--|--4--|--6--|--7--|--9--| 
D--9--|--6--|--4--|--6--|--7--|--9--| 
A--7--|--4--|--2--|--4--|--5--|--7--| 
E-----|-----|-----|-----|-----|-----| 
Chorus x2 
G-----|--6--|--7--|--9--|-----|--6--|--9--| 
D--7--|--6--|--7--|--9--|--7--|--6--|--9--| 
A--7--|--4--|--5--|--7--|--7--|--4--|--7--| 
E--5--|-----|-----|-----|--5--|-----|-----| 
Verse x2, Part 1, Part 2 
Solo x2 
G-------------------------------------- 
D-7---7-9-7---7---7-9-7---------------- 
A-----------9-----------9-7---7-9-7---9 
E-----------------------------------9-- 
Part 1, Part 2, chorus x2 & finish on A chord.