Tabbed by Dionysus 
Any questions, comments, insults 
[email protected] 
Guitar 1 
E|-----------------------------| 
B|--2-2-2--2---2-2-2--2--------| 
G|--2-2-2--2---2-2-2--2--------| 
D|--2-2-2--2---2-2-2--2--------| 
A|--0-0-0--0---0-0-0--0--------| 
E|-----------------------------| 
Guitar 1 
E|-------------------------------------------| 
B|--2-2-2--2---2-2-2--2---3-3-3-3--5-5-5-5---| 
G|--2-2-2--2---2-2-2--2---3-3-3-3--5-5-5-5---| 
D|--2-2-2--2---2-2-2--2---3-3-3-3--5-5-5-5---| 
A|--0-0-0--0---0-0-0--0---1-1-1-1--3-3-3-3---| 
E|-------------------------------------------| 
Guitar 2 
E|---------5---------5------6-----7----| 
B|---------5---------5------6-----7----| 
G|-------------------------------------| 
D|-------------------------------------| 
A|-------------------------------------| 
E|-------------------------------------| 
Guitar 3 (Slide) 
E|--19/17----17/15----15/18----18/20---| 
B|-------------------------------------| 
G|-------------------------------------| 
D|-------------------------------------| 
A|-------------------------------------| 
E|-------------------------------------| 
Chorus: D 
E|------2-------2-------2-------2-------2-------2------| 
B|----3---3---3---3---3---3---3---3---3---3---3---3----| 
G|--2-------2-------2-------2-------2-------2-------2--| 
D|-----------------------------------------------------| 
A|-----------------------------------------------------| 
E|-----------------------------------------------------|