Move On (ver. 2)

Jet

Get Move On (ver. 2) chords

  			Get Born 
By Ryan 
INTRO 
----10-----10---------------------------------------- 
-10b-----------10rb--8--8vb--------8--------------8-- 
-------------------------------7s9---9----7---------- 
--------------------------------------------7--9----- 
----------------------------------------------------- 
----------------------------------------------------- 
----------------------------------------------------- 
------10--------------------8-----12--10rb--8-7--- 
--10b----10rb--8-----8h10------------------------- 
------------------9------------------------------- 
-------------------------------------------------- 
-------------------------------------------------- 
-------------------------------------------------- 
-------------------------------------------------- 
-----10------------------------------------------- 
-10b-----10rb---8--8----------------------8------- 
-----------------------9s7s9---7s5-----4---------- 
-------------------------------------------------- 
-------------------------------------------------- 
-------------------------------------------------- 
-------------------------------------------------- 
then enter strumming 
   (hammer on 2nd fret and use ur pinky to hammer
on the 3rd fret when playing ) 
Verse: 
Well I been thinking bout the future 
Too young to pretend 
Such a waste, to always look behind you 
You should be looking straight ahead 
Bridge: 
Yeah, I'm gonna have to move on 
Before we meet again 
Ten thirty four, Flinders Street station, 
Looking down the tracks, 
A uniform man asking am I paid up, 
Why would I wanna be there? 
Yeah, I'm gonna have to move on 
Before we meet again 
Yeah it's hard, if you had of only seen 
Take control, don't be afraid to bleed 
Yeah it's hard, if you had of only seen 
And every once in a while you think about if you gonna get yourself together 
She'll be happy just to be alive 
And just because, just don't feel like coming home 
Don't mean that you're never around 
Yeah, I'm gonna have to move on 
Before we meet again 
Yeah it's hard, if you had of only seen 
Take control, don't be afraid to bleed 
Yeah it's hard, if you had of only seen