Take It Or Leave It

Jet

Get Take It Or Leave It chords

  			Tabbed by George email me at [email protected] for any corrections 
Intro Riff 
E-----------| 
B-----------| 
G-----------| 
D-----------| 
A-----------| 
E-5-5-5-5-3-| 
Chords used 
E-0--2--0--3- 
B-2--3--0--3- 
G-2--2--1--0- 
D-2--0--2--0- 
A-0--x--2--2- 
E-x--x--0--3- 
Riff  
E----------------------------------------------| 
B-------5----5--7--5--7b--7--5---7--5----------| 
G-------5----5--7--5--7b--7--5---7--5----------| 
D-(7)-7----7---------------------------7-------| 
A-----------------------------------------(0)--| 
E----------------------------------------------| 
Riff  
E---------------------------------------------| 
B----10----10--12--10--12b-12--10--12--10-----| 
G----10----10--12--10--12b-12--10--12--10-----| 
D-12----12--------------------------------12--| 
A---------------------------------------------| 
E---------------------------------------------| 
Intro: 
Intro riff, accompanied with the second guitar playing chords A and  
Verse: 
A chord then riff  
Yeah, just take it or leave it yeah! 
Yeah, did you get what you needed yeah 
Ah C'mon, don't you know what you've got to do 
A chord then riff  
Yeah, just take it or leave it yeah! 
E chord 
You gotta roll with whatever you know  
 chord 
You gotta move if you don't know what to do here's the groove 
Back to Intro riff 
Verse: 
A chord then riff  
Yeah, just take it or leave it yeah! 
Yeah, just lose it or keep it yeah! 
Ah C'mon, I think I know what you've got to do 
A chord then riff  
Yeah, just take it or leave it yeah! 
You gotta roll with whatever you know  
You gotta move if you don't know what to do here's the groove 
Back to intro riff 
then 
-----------------------------------------------| 
-----------------------------------------------| 
-----5-------------5-------5-------7b(9)--7--5-| 
-7-7---7-----5--7------7-7---7-----------------| 
----------7---------------------7--------------| 
-----------------------------------------------| 
Guitar Solo: 
------5------5-------5------5---------------| 
----5------5-------5------5-----------------| 
-7b-----7b------7b-----7b-----7b(9)r7p5-7-5-| 
--------------------------------------------| 
--------------------------------------------| 
--------------------------------------------| 
---------------------------------| 
-----5---------------------------| 
-5---5-------7b(9)r7p5-7-5-------| 
---7---7-5-7---------------7-5-7-| 
---------------------------------| 
---------------------------------| 
---------------------------------| 
------10--10-9------10-10-9-10-9-| 
-9--9-9-9-9--9---9--9--9--9-9--9-| 
---------------------------------| 
---------------------------------| 
---------------------------------| 
---------------------------------------------| 
--------13----13-12-------13-13-12-13-12-----| 
-12--12-12-12-12-12---12--12-12-12-12-12-14~-| 
---------------------------------------------| 
---------------------------------------------| 
---------------------------------------------| 
here's the bridge: 
strum A chord 
Yeah, just take it or leave it yeah! 
I said just take it or leave it yeah 
I said now take or leave it yeah 
I said just take it or leave it