Australia 
Grinspoon 
1000 Miles 
From "New Detention" LP 
Intro 
instrumental from a banjo (Transcribed to guitar) 
e--------------------------------------------------------------- 
B--------------------------------------------------------------- 
G--------------------------------------------------------------- (play 7 times) 
D---------------------------9----------10----------------------- 
A-7----10--7--10--7--7--7-------7--7--------7--7-----^10----7--- 
E--------------------------------------------------------------- 
Guitar intro: 
After banjo intro guitar comes in with a bit of distortion 
e------------------------------------------------------------------ 
B------------------------------------------------------------------ 
G------------------------------------------------------------------     
D------------------------------------------------------------------ 
A-------------------------2-------3-------------------------------- 
E---0--3--0--3--0--0--0-------0------0---^3--------0--3--0--3------  
E------------------------------------------------------------------ 
B------------------------------------------------------------------ 
G------------------------------------------------------------------           
D------------------------------------------------------------------ 
A--------------2----3---------------------------------------------- 
E---0--0---0------0----0--^3--------------------------------------- 
play melody through twice 
E---------- 
B---------- 
G----------               (play at end of 2nd time) 
D--2------- 
A--2------- 
E--0------- 
Verse: 
e----------------------------------------------------------- 
B----------------------------------------------------------- 
G-----------------------------------------------------------        (play 4 times) 
D-------------------------------------------------2--------- 
A-------------------------2-------3---------------2--------- 
E---0--3--0--3--0--0--0------0-------0---^3-------0--------- 
Chorus: 
E------------------------------------------------------------------- 
B------------------------------------------------------------------- 
G--5------4---3---------------- ------------------------------------ 
D--5------4---3----------------------------------------------------- 
A--3------2---1--------------------------------2-------3------------ 
E----------------------0---3--0--3--0--0--0-------0------0---^3----- 
E------------------------------------------------------------------- 
B------------------------------------------------------------------- 
G----------3--4----------------------------------------------------- 
D--7-------3--4----------------------------------------------------- 
A--7-------1--2-------------------------------2-------3------------- 
E--5--------------------0---3--0--3--0--0--0-------0------0---^3---- 
E------------------------------------------------------------------- 
B------------------------------------------------------------------- 
G--5------4---3-------------- -------------------------------------- 
D--5------4---3----------------------------------------------------- 
A--3------2---1-----------------------------2-------3--------------- 
E-------------------0---3--0--3--0--0--0-------0------0---^3-------- 
E------------------------------------------------------------------- 
B------------------------------------------------------------------- 
G---------3--4------------------------------------------------------ 
D--7------3--4----2--------2--------2--------2--------(2)----------- 
A--7------1--2----0--------2--------2--------2--------(2)----------- 
E--5--------------0--------0--------0--------0--------(0)----------- 
Last chord in bracket- only play in first chorus. 
Song Order: 
Banjo intro 
Guitar intro 
Verse 
Chorus 
Verse 
Bridge (no guitar) 
Chorus x2 (first time through don't play last four 
E chords only on last time to end the song.)