Australia 
Artist: Grinspoon 
Song: Ordinary 
Album: Easy Transcribed by: [email protected] 
	Yet another great song by the mighty Grinspoon! 
Easy to tab and even easier to play but it still rocks. 
These are just the riffs as I didn't have enough time (or energy) to tab 
the solos, maybe later. 
Main verse riff 
-|--------------------------|---------------------------------------- 
-|--------------------------|---------------------------------------- 
-|--------------------------|---------------------------------------- 
-|--5-5--3-3-3--5-5--8-8-8--|---------------------------------------- 
-|--5-5--3-3-3--5-5--8-8-8--|---------------------------------------- 
-|--5-5--3-3-3--5-5--8-8-8--|---------------------------------------- 
-|------------|------------------------------------------------------ 
-|------------|------------------------------------------------------ 
-|------------|------------------------------------------------------ 
-|--5-5-5--3--|------------------------------------------------------ 
-|--5-5-5--3--|------------------------------------------------------ 
-|--5-5-5--3--|------------------------------------------------------ 
Break (or something like it) 
-|----------------------|----------------------|--------------------- 
-|----------------------|------------------6b--|--------------------- 
-|------------------5b--|----------------------|--------------------- 
-|--0--3-3-0--3--0------|--0--3-3-0--3--0------|--------------------- 
-|--0--3-3-0--3--0------|--0--3-3-0--3--0------|--------------------- 
-|--0--3-3-0--3--0------|--0--3-3-0--3--0------|--------------------- 
Chorus 
-|------------------------------------------------------------------- 
-|------------------------------------------------------------------- 
-|------------------------------------------------------------------- 
-|--5-5-5-5--11-11-11-11--5-5-5-5--11-11-10-5-5--11-11-11-11--------- 
-|--5-5-5-5--11-11-11-11--5-5-5-5--11-11-10-5-5--11-11-11-11--------- 
-|--5-5-5-5--11-11-11-11--5-5-5-5--11-11-10-5-5--11-11-11-11--------- 
-|--------------------|---------------------------------------------- 
-|--------------------|---------------------------------------------- 
-|--------------------|---------------------------------------------- 
-|--10-8-10-8-10-8-3--|---------------------------------------------- 
-|--10-8-10-8-10-8-3--|---------------------------------------------- 
-|--10-8-10-8-10-8-3--|---------------------------------------------- 
	You should be able to get bloody close to the album with this. Just fuck 
around with the solo in the same position as with the Break.  I've pretty 
much worked out the entire album but I'm too lazy arsed to tab it but in 
time I will unless someone beats me to it.  Rock Show will be next. 
Enjoy...