Song/
Band/
[email protected]
Droped D 
Riff 1:
G |----------------------------|
D |----------------------------|
A |---3-5------3----3-5--------|
D |-0------0-3----0------0-3-2-|
Build Up:
G |-----------------|
D |-----------------|
A |-3-3-3-3-3-3-3---|
D |---------------3-|
Verse:
G |----------------------------------------------------------------------------|
D |----------------------------------------------------------------------------|
A |--------------------------------------------------------------------------3-|
D |-0-0-0-3-----0-0-0---3--0-2-3-0-2-3------0-0-0-3-----0-0-0---3--0-2-3-0-2---|
Chorus - Part 1:
G |------------------------------|
D |------------------------------|
A |------------------------------|
D |-0-3-2-3-6-5-3-0-3-2-3--8-8-8-|
Chorus - Part 2:
G |-----------------------------|
D |-----------------------------|
A |-----------------------------|
D |-0-3-2-3-6-5-3-0-3-2-3-6-6-5-|
Pre Riff 2:
G |---|
D |---|
A |---|
D |-0-|
Riff 2:
G |-----------------|
D |---------------3-|
A |-5-5-5---3---2---|
D |-------0---0-----|
End of Riff 2:
G |-----------|
D |-----------|
A |-5-5-5---3-|
D |-------0---|
Riff 3:
G |---------------------------------------|
D |---------------------------------------|
A |-3-3-3-3-3--1--1-1---------------------|
D |--------------------3--3-3--0--0-0-3-0-|
End of Riff 3:
G |---------------------------|
D |---------------------------|
A |-3-3-3-3-3--1--1-1---------|
D |--------------------3--3-3-|
YOUR MUM!!!!!!!!