Song/
Band/
[email protected]
Drop D 
Intro
G|---------------------------------------------------------------------------------|
D|---------------------------------------------------------------------------------|
A|-0h2-22-2-22-5------------------5-5-55--0h2-22-2-22-5------------------5-5-55--2-|
D|---------------5-55-0h2-2-22-22-----------------------5-55-0h2-2-22-22-----------|
Verse
|--------------------------|
|--------------------------|
|-0h2-2-22-----------------|
|----------0-0-3p0-0-2-0-2-|
Chorus
G|---------------------------------------------------------------------------------|
D|---------------------------------------------------------------------------------|
A|-0h2-22-2-22-5------------------5-5-55--0h2-22-2-22-5------------------5-5-55--2-|
D|---------------5-55-0h2-2-22-22-----------------------5-55-0h2-2-22-22-----------|
YOUR MUM!!!!!!!