Band: 
 Any Day, Any How
tabbed by: elibailey ([email protected])
Comments, Questions Welcome.
Tuning: Drop D (D-A-D-G) 
Intro
G|-------------------------------------------------|
D|-------------------------------------------------|
A|-------------------------------------------------|
D|-0-0-0-0-13--0-0-0-0-13--------------------------|
Verse
G|-------------------------------------------------|
D|-------------------------------------------------|
A|-------------------------------------------------|
D|-3h4h5-0-0-0---0-0-0-0---------------------------|
Pre Chorus 
G|-------------------------------------------------|
D|-------------------------------------------------|
A|-------------------------------------------------|
D|-3h4-0--0-0-0------------------------------------|
Chorus
G|----------|-----------------|--------------------|
D|----------|-----------------|--------------------|
A|-5--------|-3----------5----|-3------------------|
D|----------|-----------------|--------------------|
G|-------------------------------------------------|
D|-------------------------------------------------|
A|-2-2-2-2-2-2-2-2--3-3-3-3-3-3-3-3----------------|
D|-------------------------------------------------|
Part After First Chorus
G|-------------------------------------------------|
D|-------------------------------------------------|
A|-------------------------------------------------|
D|-0-0-0-0-0-0-0-0-0-0-0-0-0-0-0-------------------|