Australia 
Title: Balding Matters 
Artist: Grinspoon 
 Album: Guide To Better Living 
Transcribed by Stealth ([email protected]). 
Dropped  Tuning 
INTRO/VERSE 
e:----------------------------------------------------------- 
b:----------------------------------------------------------- 
g:----------------------------------------------------------- 
d:----------------------------------------------------------- 
a:-0--3h5p0h3h5--0--3h5p0h3--0--3h5p0h3h5/10-10-10-10-10-10-- 
D:-0--3h5p0h3h5--0--3h5p0h3--0--3h5p0h3h5/10-10-10-10-10-10-- 
CHORUS 
e:------------------------------------------------------------ 
b:------------------------------------------------------------ 
g:------------------------------------------------------------ 
d:-7-7--5-5-5--7-7-7-7--5-5-5--7-7-7-7--5-5-5----------------- 
a:-5-5--3-3-3--5-5-5-5--3-3-3--5-5-5-5--3-3-3--3-3-3-3-(0)---- 
D:---------------------------------------------3-3-3-3-(0)---- 
BRIDGE 
e:------------------------- 
b:------------------------- 
g:------------------------- 
d:------------------------- 
a:-0---3-1-0--3-3-1-0-1-3-- 
D:-0---3-1-0--3-3-1-0-1-3--