Australia 
   /\          ////////				*******************************************    
  //\\            ||				*    (tinpan.fortunecity.com/mingus/64)	  * 
 //--\\           ||				******************************************* 
//    \\ndrew's   ||abs 
Song : Chemical Heart 
Artist : Grinspoon 
Album : ? 
Tabbed By Andrew Schultz  ([email protected]) 
Requested By Sandy Fitzsummons  ([email protected]) 
Tuning: Dropped  
Main Riff 
e  ----------------------------------------------------------- 
b  ----15------15------15---------13-------12------12--------- 
g  -------14------14------14\12------12-------12-----12\14---- 
d  ---------0--------0------------------0--------0------------ 
a  ----------------------------------------------------------- 
  --0-------------------------------------------------------- 
Chorus 
"Can't Get Started.." 
e  ----0---0--0--------------------------------- 
b  --1h3---6--8--------------------------------- 
g  ----2---5--7--------------------------------- 
d  --------------------------------------------- 
a  --------------------------------------------- 
  --------------------------------------------- 
Post Solo 
"You Pull Me Apart.." 
e  ---0--0---------------------------------------- 
b  ---6--5---------------------------------------- 
g  ---5--4---------------------------------------- 
d  --------------------------------------------- 
a  --------------------------------------------- 
  --------------------------------------------- 
Solo (Violin) 
e  --------------------------------------------- 
b  --------------------------------------------- 
g  --------------------------------------------- 
d  --12----11----10-----9--------9--10--11--12-- 
a  ---------------------------12---------------- 
  --------------------------------------------- 
Outro (Chords) 
"Can't Get Started.." 
e  --------------------------------------------- 
b  --------------------------------------------- 
g  --7--10--12---------------------------------- 
d  --7--10--12---------------------------------- 
a  --5--8---10---------------------------------- 
  --------------------------------------------- 
At End (Play  Chord) 
e  -------0------------------------------------- 
b  ------3-------------------------------------- 
g  -----2--------------------------------------- 
d  ----0---------------------------------------- 
a  ---0----------------------------------------- 
  --0------------------------------------------ 
Sort of an accurate version :)