BAND:      
      3
ALBUM:     Guide To Better Living
TUNING:    (D A D G)
TABBED BY: Jason Starr
([email protected])
INTRO
G|------------------------------------------------------------|
D|------------------------------------------------------------|
A|------------------------------------------------------------|
D|-3-3-3~---5-5-5~--------------------------------------------| X2
VERSE
G|------------------------------------------------------------|
D|------------------------------------------------------------|
A|------------------------------------------------------------|
D|-3-0-0-5-0-0-6-0-0-7-7-7/12-12-12~--------------------------| X8
PLAY INTRO ONCE
PLAY VERSE X2
PLAY INTRO ONCE
PLAY VERSE X6
PLAY INTRO ONCE
PLAY VERSE X2
PLAY INTRO ONCE
BREAK
G|------------------------------------------------------------|
D|------------------------------------------------------------|
A|------------------------------------------------------------|
D|-3-0-0-5-0-0-6-0-0-5-0-0-3----------------------------------| X4
G|------------------------------------------------------------|
D|------------------------------------------------------------|
A|------------------------------------------------------------|
D|-3-0-0-5-0-0-6-0-0-5-0-0-3-0-3-0----------------------------| X4
"SOLO"
G|------------------------------------------------------------|
D|------------------------------------------------------------|
A|------------------------------------------------------------|
D|-0-0-0-0-0-0-0-0-1-1-1-1-1-1-1-1-2-2-2-2-2-2-2-2------------|
G|------------------------------------------------------------|
D|------------------------------------------------------------|
A|------------------------------------------------------------|
D|-3-3-3-3-3-3-3-3-4-4-4-4-5-5-5-5-6-6-6-6-7-7-7-7------------|
G|------------------------------------------------------------|
D|------------------------------------------------------------|
A|------------------------------------------------------------|
D|-8-8-9-9-10-10-11-11-12-12-13-13-14-14-15-15----------------|
PLAY INTRO ONCE
PLAY VERSE X2
PLAY INTRO ONCE
REST X4    (guitar plays verse)
PLAY VERSE X4
PLAY INTRO ONCE
OUTRO
G|------------------------------------------------------------|
D|------------------------------------------------------------|
A|------------------------------------------------------------|
D|-(5)/--(wherever the hell you like)--\----------------------|
*******
  KEY
*******
/     = Slide up
\     = Slide down
~     = Let ring
(?)   = ghost note