Australia 
Title: Just Ace 
Artist: Grinspoon 
 Album: Guide To Better Living 
Transcribed by Stealth ([email protected]). 
RIFF 1 
e:--------------------------------------------------------       
b:--------------------------------------------------------        
g:-12----9--------------9---12----9-----------------------      
d:----12---9--9-9-10-12--------12---9--9-9-10-9-7---------     
a:--------------------------------------------------------     
E:--------------------------------------------------------    
e:--------------------------------------------------------       
b:--------------------------------------------------------        
g:-12----9--------------9---12----9--------------9--------      
d:----12---9--9-9-10-12--------12---9--9-9-10-12---5~-----     
a:--------------------------------------------------------     
E:--------------------------------------------------------    
RIFF 2 
e:-----------------------------     
b:-----------------------------        
g:-----------------------------      
d:-12-12----7-7----9-9----5-5--     
a:-10-10----5-5----7-7----3-3--     
E:-----------------------------