Song/More Than You Are
Band/
[email protected]
Tuning: Dropped D Tuning
Intro
|-------------------------------------------------------------------|
|-------------------------------------------------------------------|
|-------------------------------------------------------------------|
|-4-4-444--2-2-22-22--0-0-0-0-0-2--4-4-444--2-2-22-22--0-0-0-4\(1)--|
Verse
|---------------------------------------------------|
|---------------------------------------------------|
|--------------------5------------------------------|
|-444---222---000--00-002--444---222---000--0000-02-|
|--------------------------------------------------|
|--------------------------------------------------|
|-------------------5555---------------------------|
|-444---222---000-------02--444---22222-0000-12\2\-|
Chorus
|---------------------------------|
|---------------------------------|
|---------------------------------|
|-4-4-444--2-2-2-2--0--0--0--0--0-|
Interlude
|-------------------------|
|-------------------------|
|-------------------------|
|-4-4-/12--7-7-/12--2-2-0-|
YOUR MUM!!!!!!!!!