Australia 
 Title: NBT 
Artist: Grinspoon 
 Album: Guide To Better Living 
Transcribed by Stealth ([email protected]). 
Dropped D Tuning 
RIFF 1 
e:--------------------------------------------------------------- 
b:--------------------------------------------------------------- 
g:--------------------------------------------------------------- 
d:-4-4-4-4-5-4--7-7-7-7-8-7--4-4-4-4-5-4--8-8-8-8-7-5------------ 
a:-4-4-4-4-5-4--7-7-7-7-8-7--4-4-4-4-5-4--8-8-8-8-7-5------------ 
D:-4-4-4-4-5-4--7-7-7-7-8-7--4-4-4-4-5-4--8-8-8-8-7-5------------ 
RIFF 2 
e:--------------------- 
b:--------------------- 
g:--------------------- 
d:-4-4-4-4-5-4---7-7--- 
a:-4-4-4-4-5-4---7-7--- 
D:-4-4-4-4-5-4---7-7--- 
RIFF 3 
e:------------------------ 
b:------------------------ 
g:------------------------ 
d:-9---10-----7--7--7--7-- 
a:-9---10-----7--7--7--7-- 
D:-9---10-----7--7--7--7-- 
RIFF 4 
e:-------------------------------------------- 
b:-------------------------------------------- 
g:-------------------------------------------- 
d:-------------------------------------------- 
a:-----3b-------3b-3b-----3b------------------ 
D:-4-4----4-4-4-------4-4----4-4---4-5-6-5-4-- 
RIFF 5 
e:---------------------- 
b:---------------------- 
g:---------------------- 
d:-4----7---6---5---4---  x3 (3rd time add open D chords between changes) 
a:-4----7---6---5---4--- 
D:-4----7---6---5---4---