Song/
Band/
[email protected]
intro:
G |-----------------------------|-----------------------|
D |-----------------------------|-----------------------|
A |-----------------------------|-----------------------|  play twice
D |--5-3-0--2-3-2-0--3-5-3/6--5-|-5-3-0--2-3-2-0---6-6--|
verses:
G |--------------|----------------------|-------------|--------------|
D |--------------|----------------------|-------------|--------------|
A |--------------|----------------------|-------------|--------------|
D |--0--3-0--3-3-|-0--3-0--3-2-/6-6-6-6-|-0--3-0--3-3-|-0--3-0--3-2--|
bridge:
G |---------|---------------------------|--------|
D |---------|---------------------------|--------|
A |---------|---------------------------|--------|
D |--5---2--|-0-10-0-12--14-12-10-12-10-|-5---2--|
chorus:
G |-----------------|-----------------------|
D |-----------------|-----------------------|
A |----------1--1-1-|---------3-3--3-3-3-3--|
D |--0--0-0---------|-3--3-3----------------|
break:
G |--------------------------------|-------------------------------|
D |--------------------------------|-------------------------------|
A |--------------------------------|-------------------------------|
D |--6-6-6-6-6-6-6---6-6-6-6-6-6-6-|-0-0-0-0-0-0-0--0-0-0-0-0-0-0--|
G |--------------------------------|-------------------------------|
D |--------------------------------|-------------------------------|
A |--------------------------------|-------------------------------|
D |--6-6-6-6-6-6-6---6-6-6-6-6-6-6-|-0-2-0-2h3p2-0--0-2-0-2h3p2-0--|
G |--------------------------------|-------------------------------|
D |--------------------------------|-------------------------------|
A |--------------------------------|-------------------------------|
D |--6-6-6-6-6-6-6---6-6-6-6-6-6-6-|-0-2-0-2h3p2-0--0-2-0-2h3p2-0--|
G |--------------------------------|-------------------------------|
D |--------------------------------|-------------------------------|
A |--------------------------------|-------------------------------|
D |--6-6-6-6-6-6-6---6-6-6-6-6-6-6-|-5-3-0--2-3-2-0--3-5-3---------|
YOUR MUM!!!!!!!!